Log in

One click and you are in

Login with Facebook Login with Google

Why sign up and log in

Guitar Tabs Explorer
Wiz Khalifa bass tabs for See you again

Bass tabs

This is my first tab and it was done by ear (as precisely as possible), so any feedback is welcome :)
The chorus sometimes loops the last half at the end, so just play the last two notes.


Tuning: Standard


Verse/Chorus

First variation                   Second Variation
G ----------------|               G ----------------|
D --------1-------|               D --------1-1-----|
A ----1-------1---|               A ----1-------1--0|
E 3---------------|               E 3---------------|


Bridge ("So let the light guide your way")
                                                     Let this note ring out
G ----------------|----------------|----------------|----------------|
D ----1-----------|----1-----------|--------1-------|1---------------|
A --------1-------|--------1-------|----1-------1---|----------------|
E 3---------------|3---------------|3---------------|----------------|

↓ Add and view comments below ↓

What do you think about this song and these tabs?

Add your comments, questions, rant or a thumbs up below.

Almost there ...

Sign in to get your own page with links to favourite songs and more. You are just one click away...

Login with Facebook Login with Google