Log in

One click and you are in

Login with Facebook Login with Google

Why sign up and log in

Guitar Tabs Explorer
Wiz Khalifa guitar tabs for See you again

Guitar tabs

(fingerstyle)

E|--------0---7---5-----------5---7---9---7---5---7-|-------------|
B|--------------------------------------------------|-------------|
G|--------------------6-----------------------------|-------------|
D|--------0-----------------------------------------|-------------|
A|--------------------0-----------------------------|-------------|
E|--------------------------------------------------|-------------|(x3)

Verse

E|-----0---7---5--------------0-|--2---------------------|-------------------|
B|-------------------------2----|-------2--5-------------|-0--0----0--2------|
G|----------------6-----2-------|----2-------------2---2-|-------2-----------|
D|-----0------------------------|----------------2---2---|-0-----------------|
A|----------------0-------------|----------0-------------|-------------------|
E|-------------------------0----|--2---------------------|-------------------|


E|------------------0-|-2--4--2--0-----------|-----------------------0-|-2---|
B|--------------2-----|------------2--0------|-0--0--------------2-----|-----|
G|----------2---------|------------------2---|-------2--2--------------|-----|
D|------2-------------|-4----------0--------4|-0-----------------------|-----|
A|---0----------------|----------------------|----------0--------------|-----|
E|--------------------|----------------------|----------------0--------|-2---|


E|-----------------------|----------------------------0|----5--7--9--7--5----|
B|------2--5-------------|-0--0-----0--2-----------2---|-7-------------------|
G|---2------------2-----2|-------2--------------2------|---------------------|
D|-------------2-----2---|-0-----------------2---------|-4-------------------|
A|---------0-------------|----------------0------------|-------------0-------|
E|-----------------------|-----------------------------|---------------------|

E|------|-7--7--5--5------------|-7--7---5--5--|-----------------------------|
B|--7--7|------------------5--7-|-7------------|-2--2-----2--2-----2--2------|
G|------|-----------------------|--------------|-2-----4--2-----4--2-----4--2|
D|------|-0---------------------|-0------------|-4--------X-----------------2|
A|------|----------0------------|-----------0--|-------------------0--------X|
E|------|-----------------------|--------------|-----------------------------|


E|-----------------------------|---------------------------------------------|
B|---2--2-----2--2-------------|---2--2-----2--2-----2--2-----2--2-----------|
G|---2-----4--2-----4--2-------|---2-----4--2-----4--2-----4--2-----4--2--2--|
D|---0--------X--------2-------|---4--------X--------------------------2-----|
A|---------------------0---X---|---------------------0--------0--------X-----|
E|-----------------------------|---------------------------------------------|


E|---------------------------|------------------------------------------|
B|--2--2-----2--2------------|------------2-----------------------------|
G|--2-----4--2-----4---2-----|---2--2--2-----2--2--2--2--2--2-----------|
D|--0--------X---------2-----|---------------------------------4--------|
A|---------------------0--X--|---------------------0--------------0-----|
E|---------------------------|---2--------------------------------------|


E|---------------------------------------|
B|--2------------------------------------|
G|-----2--2--2--2--2--4--2--2--2--2------|
D|--0-----------0--------------------4---|
A|-----------------------0---------------|
E|--------------------------------------0|(x2)


E|---------------------------------------|---2-------------------------------|
B|--2-----------------------2--5---------|---------2--5----------------------|
G|-----2--2--2--2--4--2--2---------------|------2------------2-----2---------|
D|--0-----------0------------------------|----------------2-----2------------|
A|--------------------0------------------|------------0----------------------|
E|---------------------------------------|---2-------------------------------|


E|-----------------------------0-----|---2---4--2--0---------------------|
B|--0--0-----0--2-----------2--------|----------------2--0---------------|
G|--------2--------------2-----------|----------------------2------------|
D|--0-----------------2--------------|---4---------------------4---------|
A|-----------------0-----------------|----------------0------------------|
E|-----------------------------------|-----------------------------------|


E|--------------------0--|--2--------------------------------|
B|--0--2-----------2-----|--------2--5-----------------------|
G|--------2--2-----------|-----2------------2-----2----------|
D|--0--------------------|---------------2-----2-------------|
A|-----------0-----------|-----------0-----------------------|
E|--------------0--------|--2--------------------------------|


E|-----------------------------0---|------5---7---9--7--5--------------|
B|--0--0-----0--2-----------2------|--7--------------------7--7--------|
G|--------2--------------2---------|-----------------------------------|
D|--0-----------------2------------|--4--------------------------------|
A|-----------------0---------------|-----------------0-----------------|
E|---------------------------------|-----------------------------------|


E|-7--7--5--5-----------|---7--7--5--5---5--4---------------|
B|--------------5--7----|---7-------------------------------|
G|----------------------|-----------------------------------|
D|-0--------------------|---0-------------------------------|
A|----------0-----------|------------0----------------------|
E|----------------------|-----------------------------------|


E|--2--------------------5--4---|--2--4--2--------------------------|
B|--------2--5------------------|-----------5--2--------------------|
G|-----2--------2-----2---------|--------2--------------2--4--------|
D|-----------------2------------|--0--------------2--4--------------|
A|-----------0------------------|--------------0--------------------|
E|--2---------------------------|-----------------------------------|


E|----------------------------------|-----------------5--4--------------|
B|--2-----2-----2-----2--5--2--0----|-----------0-----------------------|
G|-----4-----4-----4----------------|--2-----2-----2--------------------|
D|--------2-------------------------|-----4-----------------------------|
A|--------------0-------------------|--5-----------0--------------------|
E|--2-------------------------------|-----------------------------------|


E|---2---------------------5--4----------|--2---4--2-------------------------|
B|---------2--5--------------------------|------------5--2-------------------|
G|------2--------2-----2-----------------|---------2--------------2--4-------|
D|------------------2--------------------|--0---------------2--4-------------|
A|------------0--------------------------|---------------0-------------------|
E|---2-----------------------------------|-----------------------------------|


E|---------------------------------------|-----------------------------------|
B|--2-----2-----2-----2--5--2--0---------|----------0---------5--7-----------|
G|-----4-----4-----4---------------------|-2-----2-----2---------------------|
D|--------2------------------------------|----4------------------------------|
A|--------------0------------------------|-5-----------0---------------------|
E|--2------------------------------------|-----------------------------------|


E|--7--7--5--5---------------------------|
B|--7------------------------------------|
G|---------------------------------------|
D|--0--------0---------------------------|
A|---------------------------------------|
E|---------------------------------------|

Other versions of See You Again

See you againChords
See you again (Ver. 2)Chords
See you again ukuleleChords
See you againTabs
See you again ( fingerstyle)Tabs
See you again introTabs

↓ Add and view comments below ↓

What do you think about this song and these tabs?

Add your comments, questions, rant or a thumbs up below.

Almost there ...

Sign in to get your own page with links to favourite songs and more. You are just one click away...

Login with Facebook Login with Google