Log in

One click and you are in

Login with Facebook Login with Google

Why sign up and log in

Guitar Tabs Explorer
Wiz Khalifa guitar tabs for See you again ( fingerstyle)

Guitar tabs

Key: A chord diagramA majorA


Intro :

E|---5-3----3-5-7-5-3-5-------|---5-3----3-5-7-5-3-5-------|
B|-3------0-------------------|-3------3-------------------|
G|-0------0-------------------|-0------0-------------------|
D|----------------------------|--------------0-------------|
A|----------------------------|-3--------------------------|
E|-0------3-------------------|--------3-------------------|
 |---5-3----3-5-7-5-3-5-------|---5-3----------------------|
 |-3------0-------------------|-3------3-------------------|
 |-0------0-------------------|-0------0-------------------|
 |----------------------------|----------------------------|
 |----------------------------|----------------------------|
 |-0------3-------------------|-0------3-------------------|


Coro :             *

E|-----------------0~------------------------------------------------------------------------------------------------|
B|----0-3-3s5---3~-----------------0~----0-3-3s5-5s7-7s5-5s3-0-------------------------------------------------------|
G|--0-----0~----0~----0-1s2-1s2-p0-0~--0-----0---0---0---0---0-1s2-2-p0--1s2-1s2-p0--0-------------------------------|
D|-----------------------------------------------------------------------------------0-------------------------------|
A|----------------------3~-----------------------------------------------3~------------------------------------------|
E|--------0~----0~-----------------3~--------0~--------------3~----------------------3~------------------------------|


                        *

E|----------------------0~----------------------------3-3h5-5s7-5-3--0-3-4s5-4s5-s3--3~----0-3-4s5-4s5-s3--3~--------|
B|----0-3-3s5-5h7p5--3~-----------------0~----0-3-3s5----------------------------------------------------------------|
G|--0-----0~---------0~----0-1s2-1s2-p0-0~--0-----0-------------0--------------------0~--------------------0~--------|
D|-------------------------------------------------------------------------------------------------------------------|
A|---------------------------3~------------------------------------------3~--------------------3~--------------------|
E|--------0~---------3~-----------------3~--------3~------------3~-------------------3~--------------------3~--------|

Other versions of See You Again

See you againChords
See you again (Ver. 2)Chords
See you again ukuleleChords
See you againTabs
See you againTabs
See you again introTabs

↓ Add and view comments below ↓

What do you think about this song and these tabs?

Add your comments, questions, rant or a thumbs up below.

Almost there ...

Sign in to get your own page with links to favourite songs and more. You are just one click away...

Login with Facebook Login with Google