Log in

One click and you are in

Login with Facebook Login with Google

Why sign up and log in

Guitar Tabs Explorer
Jones Keziah tabs for Invisible ladder

Guitar tabs

From yfrantea@teaser.fr Thu May  8 10:09:19 1997

THE_INVISIBLE_LADDER from the album "BLUFUNK IS A chord diagramA augmentedA FACT"
							by Keziah JONES

				transcribed by Pierre Germain
						ynetimag@imaginet.fr

This TAB transcription was created using TAB MASTER version 1.0

will
decide some funk gurus to contribute to this new Keziah Jones
"directory".

When you know the master, you understand that that all the xxxxxs on the
tab
mean crazy percussions styles that are not easily translatable. Please
also
post corrections to all the mistakes you will notice.

--------------------------------------------------------------------




e:3h4----9------9---------------x-------------7-------------x----------------|
B:3h4----9------9---------------xx------------9-------------xxx-------10-----|
G:3h4----9------9---------------xxxx----------8----------8--xxxx------9------|
D:x------x------x---------------xxxx--9-------9-------9-----xxxx--11--11--11-|
A:x-------------x----------------xxx--7---------------7-------xx--9-------9--|
E:x-------------9------------------x--7---------------7--------x--9-------9--|
         the  wind is so strong        It'll blow your
cooonnn...science awa


e:----x--------9-------|
B:----xx-------10------|
G:9---xxx------9-----9-|
D:----xxxx--11----11---|
A:-----xxx--9-----9----|
E:-------x--9-----9----|
  y




CHORUS

e:---x--------9x9---x-x-x-x-x-x-x-x-x-x-------7--------xxxxxx-----5----------|
B:---xx-------9x9---x-x-x-x-x-x-x-x-x-x-------9--------xxxxxx-----7----------|
G:---xxx------9x9---x-x-x-x-x-x-x-x-x-x-------8--------xxxxxx-----6----------|
D:---xxxx--11-------x-x-x-x-x-x-x-x-x-x-9----------9---xxxxxx--7-------------|
A:----xxx--11-------x-x-x-x-x-x-x-x-x-x-7--------------xxxxxx--5-------------|
E:------x--9--------x-x-x-x-x-x-x-x-x-x-7--------------xxxxxx--5-------------|
    Taste!         ..


e:----------55------5-------------------------x---|
B:----------77------5-------------------------xx--|
G:----------6655----6-------------------------xxx-|
D:--------7---555-----------------------------xxxx|
A:------------557------------------------------xxx|
E:--------------5--------------------------------x|
  u higher     ..

				Hope I'm not too far
						Pierre

Almost there ...

Sign in to get your own page with links to favourite songs and more. You are just one click away...

Login with Facebook Login with Google