Log in

One click and you are in

Login with Facebook Login with Google

Why sign up and log in

Guitar Tabs Explorer
Alicia Keys bass tabs for If i aint got you

Bass tabs

Tuning: Standard (E A D G)


BPM = 118 in 3/4
Intro: (0:00)

G|------------------------|------------------------|------------------------|------------------------|
D|------------------------|------------------------|------------------------|------------5---7---9---|
A|------------------------|------------------------|------------------------|------------------------|
E|------------------------|------------------------|------------------------|------------------------|

G|------------------------|------------------------|------------------------|------------------------|
D|10----------------------|9-------------------8---|7-----------------------|5-----------------------|
A|------------------------|------------------------|------------------------|----------------------0-|
E|------------------------|------------------------|------------------------|------------------------|


Verse: (0:22)

G|------------------------|------------------------|------------------------|------------------------|
D|------------------------|------------------------|------------------------|------------------------|
A|----------------------5-|------------------------|----------------------3-|5-----------------------|
E|3-----------------------|0-----------------------|5-----------------------|------------------------|

G|------------------------|------------------------|------------------------|------------------------|
D|------------------------|------------------------|------------------------|------------------------|
A|------------------------|------------------------|------------------------|5-----------------------|
E|3---------------------3-|4-----------------------|5-----------------------|------------------------|


Bridge: (0:47)

G|------------------------|------------------------|------------------------|------------------------|
D|5-----------7-----------|9-----------7-----------|5-----------7-----------|9-----------10--9---7---|
A|------------------------|------------------------|------------------------|------------------------|
E|------------------------|------------------------|------------------------|------------------------|

G|------------------------|------------------------|------------------------|------------4-----------|
D|5-----------7-----------|9-----------7-----------|5-----------7-----------|9---------------5-------|
A|------------------------|------------------------|------------------------|--------------------2---|
E|------------------------|------------------------|------------------------|------------------------|


Chorus: (1:11)

G|------------------------|------------------------|------------------------|------------------------|
D|------------------------|------------------------|------------------------|------------------------|
A|3----------------------3|2-------------------2---|0-----------------------|----------------0-----2-|
E|----------------------3-|------------------------|------------------------|3-----------3-----------|

G|------------------------|------------------------|------------------------|------------------------|
D|------------------------|------------------------|------------------------|------------------------|
A|3----------------------3|2-------------------1---|0-----------------------|-----------------------0|
E|----------------------3-|------------------------|------------------------|3-----------------------|


Verse: (1:35)

G|------------------------|------------------------|------------------------|------------------------|
D|----------------0---1---|2-----------------------|--------------------2---|0-----------------------|
A|------------2-----------|----------------2------2|0-----------------------|-----------------------0|
E|3---------3-------------|----------------------3-|------------------------|------------------------|

G|------------------------|------------------------|------------------------|-----------------------7|
D|------------------------|------------------------|------------------------|------------------------|
A|------------------------|------------------------|------------------------|5-----------5555--------|
E|3-------------------3---|4-------------------4---|5----------------------5|------------------------|


Bridge: (2:00)

G|---------4--------------|--------------------7---|---------4--------------|------------------------|
D|5---------5-7---------7-|9---------9-7-----------|5---------5-7---------7-|9-----------10--9---7---|
A|------------------------|-----------------------5|------------------------|------------------------|
E|------------------------|------------------------|------------------------|------------------------|

G|------------------------|--------------------7---|---------4--------------|------------4-----------|
D|5---------5-7---------7-|9---------9-7-----------|5---------5-7---------7-|9--------\------5-------|
A|---------5-----------7--|-----------------------5|------------------------|--------------------2---|
E|------------------------|------------------------|------------------------|------------------------|


Chorus: (2:24)

G|------------------------|------------------------|------------------------|------------------------|
D|------------------------|------------------------|------------------------|------------------------|
A|3----------------------3|2-------------------2---|0-------------------0---|----------------0-----2-|
E|----------------------3-|------------------------|------------------------|3-----------3-----------|

G|------------------------|------------------------|------------------------|------------------------|
D|----------------5-------|------------------------|------------------------|------------------------|
A|3-------------------3---|2-------------------1---|0-------------------0---|------------------------|
E|------------------------|------------------------|------------------------|3-3-3-3-3-3-3-3-3-3-3-3-|

G|------------5-----------|------------------------|------------------------|------------------------|
D|----------------5-------|------------------------|------------------------|------------------------|
A|3---------------------3-|2-------------------2---|0-------------------0---|----------------0---2---|
E|------------------------|------------------------|------------------------|3-----------3-----------|

G|5-5---------------------|------------------------|------------------------|------------------------|
D|----5-5-2---------------|-------/7-8-9-----------|------------------------|------------------------|
A|------------3-3---------|2-----------------------|------------------------|------------------------|
E|-------------3--0---3---|--------------------6---|5-------------------5---|3-----------------------|


Outro: (3:13)

G|17--------------------17|16----------------------|14------------------14-\|12----------------------|
D|------------------------|------------------------|------------------------|----------------12--9---|
A|------------------------|------------------------|------------------------|------------10----------|
E|------------------------|------------------------|------------------------|------------------------|

G|------------------------|------------------------|------------------------|------------------------|
D|10----------------------|9-------------------8---|7-----------------------|5-----------------------|
A|------------------------|------------------------|------------------------|------------------------|
E|------------------------|------------------------|------------------------|------------------------|

************************************

| /  Slide up
| \  Slide down

************************************

Almost there ...

Sign in to get your own page with links to favourite songs and more. You are just one click away...

Login with Facebook Login with Google