Log in

One click and you are in

Login with Facebook Login with Google

Why sign up and log in

Guitar Tabs Explorer
Jerome Kern bass tabs for All the things you are

All The Things You Are bass tab by Jerome Kern

Jerome Kern bass tabs for All the things you are

Bass tabs

jerome kern all_the_things_you_are

Basstab by Jan Bjorklund, Finland
<jani_bjorklund@yahoo.se>
You are welcome to request for basstabs!
Fingering and positions as suggested by TablEdit,
please use common sense!

TablEdited by Jan Bjorklund

Tuning : E A D G 	Time Signature: 4/4

 |        |        |        |

|----------------------------------------------------------------|
|3---------------------------------------------------------------|
|--------------------------------3-------------------------------|
|----------------------------------------------------------------|

 |        |        |        |

|----------------------------------------------------------------|
|----------------------------------------------------------------|
|1-------------------------1-----4-------------------------------|
|----------------------------------------------------------------|

 |        |        |        |

|----------------------------------------------------------------|
|1-------------------------------1-------------------------------|
|----------------------------------------------------------------|
|----------------------------------------------------------------|

 |        |        |        |

|----------------------------------------------------------------|
|--------------------------------1-------------------------------|
|----------------------------------------------------------------|
|4---------------------------------------------------------------|

 |        |        |        |

|--------------------------------1-------------------------------|
|----------------------------------------------------------------|
|4---------------------------------------------------------------|
|----------------------------------------------------------------|

 |        |        |        |

|0---------------------------------------------------------------|
|--------------------------------0-------------------------------|
|----------------------------------------------------------------|
|----------------------------------------------------------------|

 |        |        |        |

|--------------------------------0-------------------------------|
|----------------------------------------------------------------|
|3---------------------------------------------------------------|
|----------------------------------------------------------------|

 |        |        |        |

|--------------------------------0-------------------------------|
|----------------------------------------------------------------|
|3---------------------------------------------------------------|
|----------------------------------------------------------------|

 |        |        |        |

|----------------------------------------------------------------|
|--------------------------------1-------------------------------|
|3-------------------------3-------------------------------------|
|----------------------------------------------------------------|

 |        |        |        |

|----------------------------------------------------------------|
|----------------------------------------------------------------|
|--------------------------------3-------------------------------|
|1---------------------------------------------------------------|

 |        |        |        |

|----------------------------------------------------------------|
|----------------------------------------------------------------|
|1-------------------------------1-------------------------------|
|----------------------------------------------------------------|

 |        |        |        |

|----------------------------------------------------------------|
|1-------------------------------1-------------------------------|
|----------------------------------------------------------------|
|----------------------------------------------------------------|

 |        |        |        |

|----------------------------------------------------------------|
|--------------------------------1-------------------------------|
|----------------------------------------------------------------|
|4---------------------------------------------------------------|

 |        |        |        |

|--------------------------------2-------------------------------|
|0---------------------------------------------------------------|
|----------------------------------------------------------------|
|----------------------------------------------------------------|

 |        |        |        |

|0---------------------------------------------------------------|
|--------------------------------0-------------------------------|
|----------------------------------------------------------------|
|----------------------------------------------------------------|

 |        |        |        |

|0---------------------------------------------------------------|
|--------------------------------0-------------------------------|
|----------------------------------------------------------------|
|----------------------------------------------------------------|

 |        |        |        |

|----------------------------------------------------------------|
|--------------------------------2-------------------------------|
|0---------------------------------------------------------------|
|----------------------------------------------------------------|

 |        |        |        |

|--------------------------------2-------------------------------|
|0---------------------------------------------------------------|
|----------------------------------------------------------------|
|----------------------------------------------------------------|

 |        |        |        |

|----------------------------------------------------------------|
|--------------------------------0-------------------------------|
|----------------------------------------------------------------|
|3---------------------------------------------------------------|

 |        |        |        |

|----------------------------------------------------------------|
|--------------------------------0-------------------------------|
|----------------------------------------------------------------|
|3---------------------------------------------------------------|

 |        |        |        |

|----------------------------------------------------------------|
|----------------------------------------------------------------|
|--------------------------------4-------------------------------|
|2---------------------------------------------------------------|

 |        |        |        |

|----------------------------------------------------------------|
|--------------------------------4-------------------------------|
|2---------------------------------------------------------------|
|----------------------------------------------------------------|

 |        |        |        |

|----------------------------------------------------------------|
|----------------------------------------------------------------|
|--------------------------------2-------------------------------|
|0---------------------------------------------------------------|

 |        |        |        |

|----------------------------------------------------------------|
|--------------------------------2-------------------------------|
|3-------------------------3-------------------------------------|
|----------------------------------------------------------------|

 |        |        |        |

|----------------------------------------------------------------|
|----------------------------------------------------------------|
|--------------------------------3-------------------------------|
|1---------------------------------------------------------------|

 |        |        |        |

|----------------------------------------------------------------|
|----------------------------------------------------------------|
|1-------------------------1-----4-------------------------------|
|----------------------------------------------------------------|

 |        |        |        |

|--------------------------------0-------------------------------|
|1-------------------------1-------------------------------------|
|----------------------------------------------------------------|
|----------------------------------------------------------------|

 |        |        |        |

|1---------------------------------------------------------------|
|--------------------------------1-------------------------------|
|----------------------------------------------------------------|
|----------------------------------------------------------------|

 |        |        |        |

|----------------------------------------------------------------|
|----------------------------------------------------------------|
|4-------------------------------4-------------------------------|
|----------------------------------------------------------------|

 |        |        |        |

|----------------------------------------------------------------|
|----------------------------------------------------------------|
|----------------------------------------------------------------|
|2-------------------------------2-------------------------------|

 |        |        |        |

|--------------------------------0-------------------------------|
|----------------------------------------------------------------|
|3---------------------------------------------------------------|
|----------------------------------------------------------------|

 |        |        |        |

|----------------------------------------------------------------|
|--------------------------------3-------------------------------|
|2---------------------------------------------------------------|
|----------------------------------------------------------------|

 |        |        |        |

|----------------------------------------------------------------|
|----------------------------------------------------------------|
|1-------------------------1-----4-------------------------------|
|----------------------------------------------------------------|

 |        |        |        |

|--------------------------------0-------------------------------|
|1-------------------------1-------------------------------------|
|----------------------------------------------------------------|
|----------------------------------------------------------------|

 |        |        |        |

|----------------------------------------------------------------|
|--------------------------------1-------------------------------|
|----------------------------------------------------------------|
|4---------------------------------------------------------------|

 |        |        |        |

|1---------------------------------------------------------------|
|--------------------------------1-------------------------------|
|----------------------------------------------------------------|
|------------------------------------------------4---------------|

 |        |        |        |

|----------------------------------------------------------------|
|3---------------3-----------------------------------------------|
|--------------------------------3---------------3---------------|
|----------------------------------------------------------------|

 |        |        |        |

|----------------------------------------------------------------|
|--------------------------------3---------------3---------------|
|1---------------1-----------------------------------------------|
|----------------------------------------------------------------|

 |        |        |        |

|----------------------------------------------------------------|
|1---------------1-----------------------------------------------|
|--------------------------------1---------------1---------------|
|----------------------------------------------------------------|

 |        |        |        |

|----------------------------------------------------------------|
|------------------------------------------------1---------------|
|----------------1---------------3-------------------------------|
|4---------------------------------------------------------------|

 |        |        |        |

|------------------------------------------------1---------------|
|----------------1---------------3-------------------------------|
|4---------------------------------------------------------------|
|----------------------------------------------------------------|

 |        |        |        |

|----------------7---------------4-------------------------------|
|5-----------------------------------------------5---------------|
|----------------------------------------------------------------|
|----------------------------------------------------------------|

 |        |        |        |

|----------------------------------------------------------------|
|----------------------------------------------------------------|
|3---------------3-------------------------------2---------------|
|--------------------------------3-------------------------------|

 |        |        |        |

|------------------------------------------------0---------------|
|----------------0---------------2-------------------------------|
|3---------------------------------------------------------------|
|----------------------------------------------------------------|

 |        |        |        |

|--------------------------------0---------------0---------------|
|----------------------------------------------------------------|
|3---------------3-----------------------------------------------|
|----------------------------------------------------------------|

 |        |        |        |

|----------------------------------------------------------------|
|----------------3-----------------------------------------------|
|--------------------------------3-------------------------------|
|1-----------------------------------------------1---------------|

 |        |        |        |

|----------------------------------------------------------------|
|--------------------------------3---------------3---------------|
|1---------------1-----------------------------------------------|
|----------------------------------------------------------------|

 |        |        |        |

|--------------------------------0---------------3---------------|
|1---------------3-----------------------------------------------|
|----------------------------------------------------------------|
|----------------------------------------------------------------|

 |        |        |        |

|----------------1-----------------------------------------------|
|--------------------------------1-------------------------------|
|----------------------------------------------------------------|
|4-----------------------------------------------4---------------|

 |        |        |        |

|--------------------------------2---------------2---------------|
|0---------------0-----------------------------------------------|
|----------------------------------------------------------------|
|----------------------------------------------------------------|

 |        |        |        |

|----------------------------------------------------------------|
|--------------------------------0---------------0---------------|
|----------------------------------------------------------------|
|3---------------3-----------------------------------------------|

 |        |        |        |

|0---------------0-----------------------------------------------|
|--------------------------------0---------------0---------------|
|----------------------------------------------------------------|
|----------------------------------------------------------------|

 |        |        |        |

|----------------------------------------------------------------|
|----------------2-----------------------------------------------|
|0-------------------------------3---------------0---------------|
|----------------------------------------------------------------|

 |        |        |        |

|------------------------------------------------2---------------|
|0---------------2---------------4-------------------------------|
|----------------------------------------------------------------|
|----------------------------------------------------------------|

 |        |        |        |

|----------------------------------------------------------------|
|----------------0-----------------------------------------------|
|--------------------------------2---------------0---------------|
|3---------------------------------------------------------------|

 |        |        |        |

|----------------------------------------------------------------|
|------------------------------------------------0---------------|
|----------------0---------------2-------------------------------|
|3---------------------------------------------------------------|

 |        |        |        |

|----------------------------------------------------------------|
|4---------------4-----------------------------------------------|
|--------------------------------4---------------4---------------|
|----------------------------------------------------------------|

 |        |        |        |

|----------------------------------------------------------------|
|--------------------------------4---------------4---------------|
|2---------------2-----------------------------------------------|
|----------------------------------------------------------------|

 |        |        |        |

|----------------------------------------------------------------|
|----------------------------------------------------------------|
|--------------------------------2---------------2---------------|
|0---------------0-----------------------------------------------|

 |        |        |        |

|------------------------------------------------1---------------|
|----------------0---------------2-------------------------------|
|3---------------------------------------------------------------|
|----------------------------------------------------------------|

 |        |        |        |

|----------------------------------------------------------------|
|3---------------3-----------------------------------------------|
|--------------------------------3---------------3---------------|
|----------------------------------------------------------------|

 |        |        |        |

|----------------------------------------------------------------|
|------------------------------------------------3---------------|
|1---------------3---------------4-------------------------------|
|----------------------------------------------------------------|

 |        |        |        |

|----------------------------------------------------------------|
|1---------------1-----------------------------------------------|
|--------------------------------1-------------------------------|
|----------------------------------------------------------------|

 |        |        |        |

|----------------------------------------------------------------|
|--------------------------------1---------------1---------------|
|----------------------------------------------------------------|
|4---------------4-----------------------------------------------|

 |        |        |        |

|------------------------------------------------1---------------|
|----------------1---------------3-------------------------------|
|4---------------------------------------------------------------|
|----------------------------------------------------------------|

 |        |        |        |

|----------------------------------------------------------------|
|----------------------------------------------------------------|
|--------------------------------4---------------4---------------|
|2---------------2-----------------------------------------------|

 |        |        |        |

|------------------------------------------------0---------------|
|----------------0---------------1-------------------------------|
|3---------------------------------------------------------------|
|----------------------------------------------------------------|

 |        |        |        |

|----------------------------------------------------------------|
|--------------------------------3---------------3---------------|
|2---------------2-----------------------------------------------|
|----------------------------------------------------------------|

 |        |        |        |

|----------------------------------------------------------------|
|----------------3-----------------------------------------------|
|1-------------------------------4---------------1---------------|
|----------------------------------------------------------------|

 |        |        |        |

|----------------------------------------------------------------|
|1---------------1-----------------------------------------------|
|--------------------------------1---------------1---------------|
|----------------------------------------------------------------|

 |        |        |        |

|1---------------1-------------------------------0---------------|
|--------------------------------1-------------------------------|
|----------------------------------------------------------------|
|----------------------------------------------------------------|

 |        |        |        |

|--------------------------------5---------------8---------------|
|6---------------8-----------------------------------------------|
|----------------------------------------------------------------|
|----------------------------------------------------------------|

 |        |        |        |

|----------------------------------------------------------------|
|3---------------------------------------------------------------|
|--------------------------------3-------------------------------|
|----------------------------------------------------------------|

 |        |        |        |

|----------------------------------------------------------------|
|----------------------------------------------------------------|
|1-------------------------1-----4-------------------------------|
|----------------------------------------------------------------|

 |        |        |        |

|--------------------------------3-------------------------------|
|1---------------------------------------------------------------|
|----------------------------------------------------------------|
|----------------------------------------------------------------|

 |        |        |        |

|1---------------------------------------------------------------|
|--------------------------------1-------------------------------|
|----------------------------------------------------------------|
|----------------------------------------------------------------|

 |        |        |        |

|--------------------------------1-------------------------------|
|----------------------------------------------------------------|
|4---------------------------------------------------------------|
|----------------------------------------------------------------|

 |        |        |        |

|----------------------------------------------------------------|
|----------------------------------------------------------------|
|----------------------------------------------------------------|
|3-------------------------------3-------------------------------|

 |        |        |        |

|--------------------------------0-------------------------------|
|----------------------------------------------------------------|
|3---------------------------------------------------------------|
|----------------------------------------------------------------|

 |        |        |        |

|--------------------------------0-------------------------------|
|----------------------------------------------------------------|
|3---------------------------------------------------------------|
|----------------------------------------------------------------|

 |        |        |        |

|----------------------------------------------------------------|
|----------------------------------------------------------------|
|3-------------------------------3-------------------------------|
|----------------------------------------------------------------|

 |        |        |        |

|----------------------------------------------------------------|
|----------------------------------------------------------------|
|----------------------------------------------------------------|
|1-------------------------------1-------------------------------|

 |        |        |        |

|----------------------------------------------------------------|
|----------------------------------------------------------------|
|1-------------------------------1-------------------------------|
|----------------------------------------------------------------|

 |        |        |        |

|--------------------------------0-------------------------------|
|1-------------------------1-------------------------------------|
|----------------------------------------------------------------|
|----------------------------------------------------------------|

 |        |        |        |

|1---------------------------------------------------------------|
|--------------------------------1-------------------------------|
|----------------------------------------------------------------|
|----------------------------------------------------------------|

 |        |        |        |

|--------------------------------2-------------------------------|
|0---------------------------------------------------------------|
|----------------------------------------------------------------|
|----------------------------------------------------------------|

 |        |        |        |

|----------------------------------------------------------------|
|--------------------------------0-------------------------------|
|----------------------------------------------------------------|
|3---------------------------------------------------------------|

 |        |        |        |

|0---------------------------------------------------------------|
|--------------------------------0-------------------------------|
|----------------------------------------------------------------|
|----------------------------------------------------------------|

 |        |        |        |

|----------------------------------------------------------------|
|----------------------------------------------------------------|
|0-------------------------0-----3-------------------------------|
|----------------------------------------------------------------|

 |        |        |        |

|--------------------------------2-------------------------------|
|0---------------------------------------------------------------|
|----------------------------------------------------------------|
|----------------------------------------------------------------|

 |        |        |        |

|----------------------------------------------------------------|
|--------------------------------0-------------------------------|
|----------------------------------------------------------------|
|3---------------------------------------------------------------|

 |        |        |        |

|----------------------------------------------------------------|
|--------------------------------0-------------------------------|
|----------------------------------------------------------------|
|3---------------------------------------------------------------|

 |        |        |        |

|----------------------------------------------------------------|
|4---------------------------------------------------------------|
|--------------------------------4-------------------------------|
|----------------------------------------------------------------|

 |        |        |        |

|----------------------------------------------------------------|
|--------------------------------4-------------------------------|
|2---------------------------------------------------------------|
|----------------------------------------------------------------|

 |        |        |        |

|----------------------------------------------------------------|
|2---------------------------------------------------------------|
|--------------------------------2-------------------------------|
|----------------------------------------------------------------|

 |        |        |        |

|--------------------------------1-------------------------------|
|----------------------------------------------------------------|
|3---------------------------------------------------------------|
|----------------------------------------------------------------|

 |        |        |        |

|----------------------------------------------------------------|
|----------------------------------------------------------------|
|--------------------------------3-------------------------------|
|1---------------------------------------------------------------|

 |        |        |        |

|----------------------------------------------------------------|
|----------------------------------------------------------------|
|1-------------------------------1-------------------------------|
|----------------------------------------------------------------|

 |        |        |        |

|--------------------------------3-------------------------------|
|1---------------------------------------------------------------|
|----------------------------------------------------------------|
|----------------------------------------------------------------|

 |        |        |        |

|----------------------------------------------------------------|
|----------------------------------------------------------------|
|----------------------------------------------------------------|
|4-------------------------------4-------------------------------|

 |        |        |        |

|--------------------------------1-------------------------------|
|----------------------------------------------------------------|
|4---------------------------------------------------------------|
|----------------------------------------------------------------|

 |        |        |        |

|----------------------------------------------------------------|
|4---------------------------------------------------------------|
|--------------------------------4-------------------------------|
|----------------------------------------------------------------|

 |        |        |        |

|--------------------------------0-------------------------------|
|----------------------------------------------------------------|
|3---------------------------------------------------------------|
|----------------------------------------------------------------|

 |        |        |        |

|----------------------------------------------------------------|
|--------------------------------3-------------------------------|
|2---------------------------------------------------------------|
|----------------------------------------------------------------|

 |        |        |        |

|----------------------------------------------------------------|
|----------------------------------------------------------------|
|1-------------------------------1-------------------------------|
|----------------------------------------------------------------|

 |        |        |        |

|--------------------------------0-------------------------------|
|1-------------------------1-------------------------------------|
|----------------------------------------------------------------|
|----------------------------------------------------------------|

 |        |        |        |

|1---------------------------------------------------------------|
|--------------------------------1-------------------------------|
|----------------------------------------------------------------|
|----------------------------------------------------------------|

 |        |        |        |

|----------------------------------------------------------------|
|--------------------------------1-------------------------------|
|----------------------------------------------------------------|
|4---------------------------------------------------------------|

 |        |        |        |

|----------------------------------------------------------------|
|----------------------------------------------------------------|
|--------------------------------1---------------2---------------|
|1---------------4-----------------------------------------------|

 |        |        |        |

|----------------------------------------------------------------|
|----------------------------------------------------------------|
|3---------------------------------------------------------------|
|--------------------------1-------------------------------------|

 |        |        |        |

|----------------------------------------------------------------|
|----------------------------------------------------------------|
|----------------------------------------------------------------|
|----------------------------------------------------------------|



_____________________________________________________
Hitta snörapporter...
från 500 olika skidorter i Europa
på http://se.snow.yahoo.com

Almost there ...

Sign in to get your own page with links to favourite songs and more. You are just one click away...

Login with Facebook Login with Google