Log in

One click and you are in

Login with Facebook Login with Google

Why sign up and log in

Guitar Tabs Explorer
Kent guitar tabs for Things she said

Guitar tabs

THINGS SHE SAID
BY KENT
FROM THE ALBUM ISOLA (1998)
---------------------------

Tabbed by AAuuddee@aol.com

INTRO:
  A chord diagramC majorC      A chord diagramA minorAm     A chord diagramFmaj7Fmaj7
--0--0---0--0---0--0-- x4
--1--0---1--0---1--0--
--0--0---2--2---2--2--
--2--2---2--2---3--3--
--3--3---0--0---------
----------------------


VERSE1:
  A chord diagramC majorC      A chord diagramA minorAm     A chord diagramFmaj7Fmaj7
--0--0---0--0---0--0--
--1--0---1--0---1--0--
--0--0---2--2---2--2--
--2--2---2--2---3--3--
--3--3---0--0---------
----------------------

  A chord diagramC majorC      A chord diagramA minorAm    A chord diagramDmDm   A chord diagramFF   A chord diagramG MajorG   A chord diagramFmaj7Fmaj7
--0--0---0--0---1---1---3---0--
--1--0---1--0---3---1---0---1--
--0--0---2--2---2---2---0---2--
--2--2---2--2---0---3---0---3--
--3--3---0--0-----------2------
------------------------3------


CHORUS:

chords: A chord diagramA minorAm / A chord diagramG MajorG / A chord diagramC majorC / A chord diagramFF / A chord diagramA minorAm / A chord diagramG MajorG / A chord diagramFmaj7Fmaj7

electric guitar with effects: let ring

--------------------------------
--10--12--13--5--10--12--5~-----
-----------------------------5--
--------------------------------
--------------------------------
--------------------------------


VERSE2: same as VERSE1


CHORUS:

chords: A chord diagramA minorAm / A chord diagramG MajorG / A chord diagramC majorC / A chord diagramFF / A chord diagramA minorAm / A chord diagramG MajorG / A chord diagramFmaj7Fmaj7

electric guitar with effects: let ring

--------------------------------
--10--12--13--5--10--12--5~-----
-----------------------------2--
--------------------------------
--------------------------------
--------------------------------


BRIDGE:

chords: A chord diagramA minorAm / A chord diagramG MajorG / A chord diagramFF / A chord diagramC majorC (x3)  A chord diagramA minorAm / A chord diagramG MajorG / A chord diagramFmaj7Fmaj7

electric guitar 1 with effects: let ring

-----------------
--6--5---repeat--
-----------------
-----------------
-----------------
-----------------

electric guitar 2 with effects: let ring

--17--12--8--repeat--
---------------------
---------------------
---------------------
---------------------
---------------------


SOLO:

chords (not sure): A chord diagramC majorC / A chord diagramG MajorG / A chord diagramA minorAm / A chord diagramFF / A chord diagramC majorC / A chord diagramE minorEm / A chord diagramG MajorG / A chord diagramFF
                   A chord diagramC majorC / A chord diagramG MajorG / A chord diagramA minorAm / A chord diagramFF / A chord diagramC majorC / A chord diagramE minorEm / A chord diagramFmaj7Fmaj7

let ring
------------------------------------------------------
------------------------------------------------------
--9--9--9s7--7--7--7--7--9--9--9s10--10--10--10--10---
------------------------------------------------------
------------------------------------------------------
------------------------------------------------------

------------------------------------------------
------------------------------------------------
--5--5--5s4--4--4--4--4--5--5--5s3--3--3--3--3--
------------------------------------------------
------------------------------------------------
------------------------------------------------

------------------------------------------------------
------------------------------------------------------
--9--9--9s7--7--7--7--7--9--9--9s10--10--10--10--10---
------------------------------------------------------
------------------------------------------------------
------------------------------------------------------

--------------------------------------------------------
--------------------------------------------------------
--5--5--5s4--4--4--4--4s5--5--5s7--7--7s9--9--9s10--10--
--------------------------------------------------------
--------------------------------------------------------
--------------------------------------------------------

chords: A chord diagramC majorC / A chord diagramA minorAm / A chord diagramFmaj7Fmaj7

electric guitar 1: let ring

----------------------------------------------------
----------------------------------------------------
--9s7--5--5--9s7--5--5--9s7--5--5--4--5--9s7--5--5--
----------------------------------------------------
----------------------------------------------------
----------------------------------------------------

electric guitar 2: let ring

----------
--sss13~--
---------- repeat
----------
----------
----------


BRIDGE


END on a A chord diagramC majorC


ENJOY!!!!!

Almost there ...

Sign in to get your own page with links to favourite songs and more. You are just one click away...

Login with Facebook Login with Google