Log in

One click and you are in

Login with Facebook Login with Google

Why sign up and log in

Guitar Tabs Explorer
Kent guitar tabs for Stop me june

Guitar tabs

Tabbed by:	Tom Woollan

Title:	Stop Me June (Little Ego)
Album:	Hagnesta Hill (English Version)

*This is all my own work*
Intro/Verse (Play 3 times)
|-6---6-6-6---6-6|-6---6-6-6---6-6|-6---6-6-6---6-6|-6---6-6-6---6-6|
|-7---7-7-7---7-7|-7---7-7-7---7-7|-7---7-7-7---7-7|-7---7-7-7---7-7|
|-6---6-6-6---6-6|-6---6-6-6---6-6|-8---8-8-8---8-8|-8---8-8-8---8-8|
|-8---8-8-8---8-8|-8---8-8-8---8-8|-8---8-8-8---8-8|-8---8-8-8---8-8|
|-9---9-9-9---9-9|-9---9-9-9---9-9|-6---6-6-6---6-6|-6---6-6-6---6-6|
|----------------|----------------|----------------|----------------|


|-6---6-6-6---6-6|-6---6-6-6---6-6|-6---6-6-6---6-6|-6---6-6-6---6-6|
|-7---7-7-7---7-7|-7---7-7-7---7-7|-7---7-7-7---7-7|-7---7-7-7---7-7|
|-6---6-6-6---6-6|-6---6-6-6---6-6|-8---8-8-8---8-8|-8---8-8-8---8-8|
|-8---8-8-8---8-8|-8---8-8-8---8-8|-8---8-8-8---8-8|-8---8-8-8---8-8|
|-9---9-9-9---9-9|-9---9-9-9---9-9|-6---6-6-6---6-6|-6---6-6-6---6-6|
|----------------|----------------|----------------|----------------|


|-6---6-6-6---6-6|-6---6-6-6---6-6|-6---6-6-6---6-6|-6---6-6-6---6-6|
|-7---7-7-7---7-7|-7---7-7-7---7-7|-7---7-7-7---7-7|-7---7-7-7---7-7|
|-6---6-6-6---6-6|-6---6-6-6---6-6|-8---8-8-8---8-8|-8---8-8-8---8-8|
|-8---8-8-8---8-8|-8---8-8-8---8-8|-8---8-8-8---8-8|-8---8-8-8---8-8|
|-9---9-9-9---9-9|-9---9-9-9---9-9|-6---6-6-6---6-6|-6---6-6-6---6-6|
|----------------|----------------|----------------|----------------|


|-6---6-6-6---6-6|-6---6-6-6---6-6|-6---6-6-6---6-6|-6---6-6-6---6-6|
|-7---7-7-7---7-7|-7---7-7-7---7-7|-7---7-7-7---7-7|-7---7-7-7---7-7|
|-6---6-6-6---6-6|-6---6-6-6---6-6|-8---8-8-8---8-8|-8---8-8-8---8-8|
|-8---8-8-8---8-8|-8---8-8-8---8-8|-8---8-8-8---8-8|-8---8-8-8---8-8|
|-9---9-9-9---9-9|-9---9-9-9---9-9|-6---6-6-6---6-6|-6---6-6-6---6-6|
|----------------|----------------|----------------|----------------|

|-7---7-7-7---7-7|-7---7-7-4---4-4|-6---6-6-6---6-6|-4---4-4-4---4-4|
|-7---7-7-7---7-7|-7---7-7-4---4-4|-7---7-7-7---7-7|-6---6-6-6---6-6|
|-8---8-8-8---8-8|-8---8-8-4---4-4|-8---8-8-8---8-8|-6---6-6-6---6-6|
|-9---9-9-9---9-9|-9---9-9-6---6-6|-8---8-8-8---8-8|-6---6-6-6---6-6|
|-9---9-9-9---9-9|-9---9-9-6---6-6|-6---6-6-6---6-6|-4---4-4-4---4-4|
|-7---7-7-7---7-7|-7---7-7-4---4-4|----------------|----------------|


On the 2nd playing the above, the 2nd joins in with this:
|----------------|----------------|----------------|----------------|
|----------------|----------------|----------------|----------------|
|---3----------3-|---------3------|---3----------3-|---------3------|
|--4---6--4---4--|-6--4---4--6--4-|--4---6--4---4--|-6--4---4--6--4-|
|-4----------4---|-------4--------|-4----------4---|-------4--------|
|----------------|----------------|----------------|----------------|


|----------------|----------------|----------------|----------------|
|----------------|----------------|----------------|----------------|
|---3----------3-|---------3------|---3----------3-|---------3------|
|--4---6--4---4--|-6--4---4--6--4-|--4---6--4---4--|-6--4---4--6--4-|
|-4----------4---|-------4--------|-4----------4---|-------4--------|
|----------------|----------------|----------------|----------------|


|----------------|----------------|----------------|----------------|
|----------------|----------------|----------------|----------------|
|---3----------3-|---------3------|----------------|----------------|
|--4---6--4---4--|-6--4---4--6--6-|6-6--6-6-6p4-4-4|-333/444333/444-|
|-4----------4---|-------4------6-|6-6--6-6-6---6-6|-444/666444/666-|
|----------------|----------------|----------------|----------------|


|----------------|----------------|----------------|----------------|
|----------------|----------------|----------------|----------------|
|---3----------3-|---------3------|----------------|----------------|
|--4---6--4---4--|-6--4---4--6--6-|6-6--6-6-6p4-4-4|-333/444333/444-|
|-4----------4---|-------4------6-|6-6--6-6-6---6-6|-444/666444/666-|
|----------------|----------------|----------------|----------------|


|----------------|----------------|----------------|----------------|
|-0---0----------|-2--0-----------|----------------|----------------|
|----------------|-4--------------|-3h4p3----------|-1h3p1----------|
|----------------|----------------|----------------|----------------|
|----------------|----------------|----------------|----------------|
|----------------|----------------|----------------|----------------|

On the third time, second guitar plays the following:
|-6---------6----|---6---------6--|-6---------6----|---6---------6--|
|---9-7-6-7---9-6|-7---9-7-6-7---9|---9-7-6-7---9-6|-7---9-7-6-7---9|
|----------------|----------------|----------------|----------------|
|----------------|----------------|----------------|----------------|
|----------------|----------------|----------------|----------------|
|----------------|----------------|----------------|----------------|


|-6---------6----|---6---------6--|-6---------6----|---6---------6--|
|---9-7-6-7---9-6|-7---9-7-6-7---9|---9-7-6-7---9-6|-7---9-7-6-7---9|
|----------------|----------------|----------------|----------------|
|----------------|----------------|----------------|----------------|
|----------------|----------------|----------------|----------------|
|----------------|----------------|----------------|----------------|


|----------------|----------------|----------------|----------------|
|----------------|----------------|----------------|----------------|
|---3----------3-|---------3------|----------------|----------------|
|--4---6--4---4--|-6--4---4--6--6-|6-6--6-6-6p4-4-4|-333/444333/444-|
|-4----------4---|-------4------6-|6-6--6-6-6---6-6|-444/666444/666-|
|----------------|----------------|----------------|----------------|


|----------------|----------------|----------------|----------------|
|----------------|----------------|----------------|----------------|
|---3----------3-|---------3------|----------------|----------------|
|--4---6--4---4--|-6--4---4--6--6-|6-6--6-6-6p4-4-4|-333/444333/444-|
|-4----------4---|-------4------6-|6-6--6-6-6---6-6|-444/666444/666-|
|----------------|----------------|----------------|----------------|


|----------------|----------------|----------------|----------------|
|-0---0----------|-2--0-----------|----------------|----------------|
|----------------|-4--------------|-3h4p3----------|-1h3p1----------|
|----------------|----------------|----------------|----------------|
|----------------|----------------|----------------|----------------|
|----------------|----------------|----------------|----------------|


Chorus (Play Twice)
|-6---6-6-6---6-6|-6---6-6-6---6-6|-6---6-6-6---6-6|-6---6-6-6---6-6|
|-7---7-7-7---7-7|-7---7-7-7---7-7|-7---7-7-7---7-7|-7---7-7-7---7-7|
|-6---6-6-6---6-6|-6---6-6-6---6-6|-8---8-8-8---8-8|-8---8-8-8---8-8|
|-8---8-8-8---8-8|-8---8-8-8---8-8|-8---8-8-8---8-8|-8---8-8-8---8-8|
|-9---9-9-9---9-9|-9---9-9-9---9-9|-6---6-6-6---6-6|-6---6-6-6---6-6|
|----------------|----------------|----------------|----------------|
|Guitar 2                                                           |
|-6---------6----|---6---------6--|-6---------6----|---6---------6--|
|---9-7-6-7---9-6|-7---9-7-6-7---9|---9-7-6-7---9-6|-7---9-7-6-7---9|
|----------------|----------------|----------------|----------------|
|----------------|----------------|----------------|----------------|
|----------------|----------------|----------------|----------------|
|----------------|----------------|----------------|----------------|


|-7---7-7-7---7-7|-7---7-7-7---7-7|-6---6-6-6---6-6|-4---4-4-4---4-4|
|-7---7-7-7---7-7|-7---7-7-7---7-7|-7---7-7-7---7-7|-6---6-6-6---6-6|
|-8---8-8-8---8-8|-8---8-8-8---8-8|-8---8-8-8---8-8|-6---6-6-6---6-6|
|-9---9-9-9---9-9|-9---9-9-9---9-9|-8---8-8-8---8-8|-6---6-6-6---6-6|
|-9---9-9-9---9-9|-9---9-9-9---9-9|-6---6-6-6---6-6|-4---4-4-4---4-4|
|-7---7-7-7---7-7|-7---7-7-7---7-7|----------------|----------------|
|Guitar 2                                                           |
|-6---------6----|---6---------6--|-6---------6----|---6---------6--|
|---9-7-6-7---9-6|-7---9-7-6-7---9|---9-7-6-7---9-6|-7---9-7-6-7---9|
|----------------|----------------|----------------|----------------|
|----------------|----------------|----------------|----------------|
|----------------|----------------|----------------|----------------|
|----------------|----------------|----------------|----------------|

Interlude
|-4--------4---4---4--------4---4-|-7--------7---7---7--------7---7-|
|-4--------4---4---4--------4---4-|-7--------7---7---7--------7---7-|
|-4--------4---4---4--------4---4-|-8--------8---8---8--------8---8-|
|-6--------6---6---6--------6---6-|-9--------9---9---9--------9---9-|
|-6--------6---6---6--------6---6-|-9--------9---9---9--------9---9-|
|-4--------4---4---4--------4---4-|-7--------7---7---7--------7---7-|
|Guitar 2                                                           |
|-11------------------11----------|-----11------------------11------|
|-----14--12--11--12------14--11--|-12------14--12--11--12----------|
|---------------------------------|-----------------------------11--|
|---------------------------------|---------------------------------|
|---------------------------------|---------------------------------|
|---------------------------------|---------------------------------|


|-6--------6---6---6--------6---6-|-4--------4---4---4--------4---4-|
|-7--------7---7---7--------7---7-|-6--------6---6---6--------6---6-|
|-8--------8---8---8--------8---8-|-6--------6---6---6--------6---6-|
|-8--------8---8---8--------8---8-|-6--------6---6---6--------6---6-|
|-6--------6---6---6--------6---6-|-4--------4---4---4--------4---4-|
|---------------------------------|---------------------------------|
|Guitar 2                                                           |
|-11------------------11----------|-----11------------------11------|
|-----14--12--11--12------14--11--|-12------14--12--11--12----------|
|---------------------------------|-----------------------------11--|
|---------------------------------|---------------------------------|
|---------------------------------|---------------------------------|
|---------------------------------|---------------------------------|

\\\\\\\\\\\\\\\\\\\\\\\\\\\\\\\\\\\\\\\\\\\\\\\\\\\\\\\\\\\\\\\\\\\\\
|-4--------4---4---4--------4---4-|-7--------7---7---7--------7---7-|
|-4--------4---4---4--------4---4-|-7--------7---7---7--------7---7-|
|-4--------4---4---4--------4---4-|-8--------8---8---8--------8---8-|
|-6--------6---6---6--------6---6-|-9--------9---9---9--------9---9-|
|-6--------6---6---6--------6---6-|-9--------9---9---9--------9---9-|
|-4--------4---4---4--------4---4-|-7--------7---7---7--------7---7-|
|Guitar 2                                                           |
|-6-------------------6-----------|-----6-------------------6-------|
|-----9---7---6---7-------9---6---|-7-------9---7---6---7-------9---|
|---------------------------------|---------------------------------|
|---------------------------------|---------------------------------|
|---------------------------------|---------------------------------|
|---------------------------------|---------------------------------|


|-6--------6---6---6--------6---6-|-4--------4---4---4--------4---4-|
|-7--------7---7---7--------7---7-|-6--------6---6---6--------6---6-|
|-8--------8---8---8--------8---8-|-6--------6---6---6--------6---6-|
|-8--------8---8---8--------8---8-|-6--------6---6---6--------6---6-|
|-6--------6---6---6--------6---6-|-4--------4---4---4--------4---4-|
|---------------------------------|---------------------------------|
|Guitar 2                                                           |
|-11------------------11----------|-----11------------------11------|
|-----14--12--11--12------14--11--|-12------14--12--11--12----------|
|---------------------------------|-----------------------------11--|
|---------------------------------|---------------------------------|
|---------------------------------|---------------------------------|
|---------------------------------|---------------------------------|
/////////////////////////////////////////////////////////////////////

The marked section above should be played 4 and a half times.  On the
3rd time, a 3rd guitar joins in with this (pick repetitively):
|----------------|-9--------------|---------13-----|-14-------------|
|----------------|----------------|----------------|----------------|
|----------------|----------------|----------------|----------------|
|----------------|----------------|----------------|----------------|
|----------------|----------------|----------------|----------------|
|----------------|--------9-------|-11-------------|----------------|


|-11-------13----|-14------18-----|---19---18------|-13-------------|
|----------------|----------------|----------------|----------------|
|----------------|----------------|----------------|----------------|
|----------------|----------------|----------------|----------------|
|----------------|----------------|----------------|----------------|
|----------------|----------------|----------------|----------------|


|-14-------------|----------------|
|----------------|-----/14----/14-|
|----------------|----------------|
|----------------|----------------|
|----------------|----------------|
|----------------|----------------|

After that, guitars 1 & 2 play:
|-6---6-6-6---6-6|-4---4-4-4---4-4|-7---7-7-7---7-7|-7---7-7-7--7|--|
|-7---7-7-7---7-7|-6---6-6-6---6-6|-7---7-7-7---7-7|-7---7-7-7--7|--|
|-8---8-8-8---8-8|-6---6-6-6---6-6|-8---8-8-8---8-8|-8---8-8-8--8|--|
|-8---8-8-8---8-8|-6---6-6-6---6-6|-9---9-9-9---9-9|-9---9-9-9--9|--|
|-6---6-6-6---6-6|-4---4-4-4---4-4|-9---9-9-9---9-9|-9---9-9-9--9|--|
|----------------|----------------|-7---7-7-7---7-7|-7---7-7-7--7|--|
|Guitar 2                                                           |
|-11-------------|----------------|----------------|-------------|--|
|-------------11-|-9-----------11-|-/7-----------9-|-9/11--------|11|
|----------------|----------------|----------------|-------------|--|
|----------------|----------------|----------------|-------------|--|
|----------------|----------------|----------------|-------------|--|
|----------------|----------------|----------------|-------------|--|

The end.

Other versions of Stop Me June

Stop me june (little ego)Chords

Almost there ...

Sign in to get your own page with links to favourite songs and more. You are just one click away...

Login with Facebook Login with Google