Log in

One click and you are in

Login with Facebook Login with Google

Why sign up and log in

Guitar Tabs Explorer
Kent guitar tabs for Alla mot alla

Guitar tabs with lyrics

Tuning: Standard (E A D G B E)

Key: A chord diagramEb MajorEb

Difficulty: Novice

Kent - Alla Mot Alla
Palace & Main
2005

http://kent.nu/latar/alla-mot-alla/

A chord diagramEb MajorEb
Nu ska lagren tömmas
                  A chord diagramBb majorBb
nu ska allting säljas ut
                  A chord diagramAbAb Ab/G
men köpcentren är tomma
A chord diagramF minorFm                 A chord diagramBb majorBb A chord diagramBsusBsus A chord diagramBb majorBb
alla människor tog slut

                    A chord diagramEb MajorEb A chord diagramBb majorBb
Och nu ska allting renas
                 A chord diagramC minorCm         A chord diagramBb majorBb    A chord diagramEb MajorEb
jag förstår inte hur det ska gå till...
         A chord diagramEb7Eb7          A chord diagramAbAb
vi har aldrig kunnat enas
A chord diagramBb majorBb                    A chord diagramC minorCm A chord diagramG/BG/B A chord diagramCm/BbCm/Bb
sjunga: "we shall overcome"
A chord diagramF/AF/A          A chord diagramAbAb
67 är överspelat
A chord diagramBb majorBb
nu är det jag och mitt mot dom...

Gitarr 1:

e|------|-----------------|--------|----------------|-------|-----------------|------|---------------|-------|
B|8-8---|-12--8-7-5-7-8---|-8--7---|-12--7-5-4-5-7--|--7--8-|-12--10-8-7-8-10-|-8--5-|-12--7-5-4-5-7-|--12--8|
G|------|-----------------|--------|----------------|-------|-----------------|------|---------------|-------|
D|------|-----------------|--------|----------------|-------|-----------------|------|---------------|-------|
A|------|-----------------|--------|----------------|-------|-----------------|------|---------------|-------|
E|------|-----------------|--------|----------------|-------|-----------------|------|---------------|-------|

Gitarr 2:

e|----------------------|------------------|------------|----------|--------------------|--------------------|
B|----4----6----4----8--|--4----6--4--3--3-|-3--3--3--3-|-3--3--8--|--4----6----4----8--|--4----6----4----8--|
G|----------------------|------------------|------------|----------|--------------------|--------------------|
D|----------------------|------------------|------------|----------|--------------------|--------------------|
A|----------------------|------------------|------------|----------|--------------------|--------------------|
E|----------------------|------------------|------------|----------|--------------------|--------------------|

e|-----------|----------|-------------------|--------------|------------|----------|-------------------|-----|
B|8--8--8--8-|-8--8--8--|-6----4----8----4--|-6----4--3--3-|-3--3--3--3-|-3--3--8--|-4----6----4----8--|-4---|
G|-----------|----------|-------------------|--------------|------------|----------|-------------------|-----|
D|-----------|----------|-------------------|--------------|------------|----------|-------------------|-----|
A|-----------|----------|-------------------|--------------|------------|----------|-------------------|-----|
E|-----------|----------|-------------------|--------------|------------|----------|-------------------|-----|

e|----------|
B|6--6--6--6|
G|----------|
D|----------|
A|----------|
E|----------|
                 A chord diagramEb MajorEb
Nu ska världen räddas
                      A chord diagramBb majorBb
allting trasigt ska bli helt
                        A chord diagramC minorCm  A chord diagramBb majorBb
och jag sprayar namn på muren
A chord diagramAbAb  A chord diagramF minorFm             A chord diagramBb majorBb
alla dom som tänker fel

                   A chord diagramEb MajorEb
Du vet nog vad jag menar...
A chord diagramBb/DBb/D           A chord diagramC minorCm      A chord diagramBb majorBb       A chord diagramEb MajorEb
i kärlek och krig och allt det där
    A chord diagramEb7Eb7             A chord diagramAbAb
kravallstaket mot stenar
A chord diagramBb majorBb                         A chord diagramC minorCm A chord diagramG/BG/B A chord diagramCm/BbCm/Bb
vi är en revolt som aldrig kom
A chord diagramF/AF/A             A chord diagramAbAb
ditt 67 är förorenat
A chord diagramBb majorBb
nu är det jag och mitt mot dom...

Gitarr 1:

e|--------------------------------------------------------------------------------------------------------|
B|--------------------------------------------------------------------------------------------------------|
G|8-8----12--8-7-5-7-8----8--7----12--7-5-4-5-7----12--8--8--8--8--8--8--8--8--12--12--10-8-7-8-10--10--10|
D|--------------------------------------------------------------------------------------------------------|
A|--------------------------------------------------------------------------------------------------------|
E|--------------------------------------------------------------------------------------------------------|

e|---------------------------------------------------------------|
B|---------------------------------------------------------------|
G|10--10--10--8--5--5--5--5--5--5--5--5--12--12--7-5-4-5-7----8-8|
D|---------------------------------------------------------------|
A|---------------------------------------------------------------|
E|---------------------------------------------------------------|

e|-------------------------------------------------------------------------------------------------------|
B|4-16----20--16-15-13-15-16----16/15--13----20--15-13-12-13-15----16--16--18--16----20--18-16-15-16-18--|
G|-------------------------------------------------------------------------------------------------------|
D|-------------------------------------------------------------------------------------------------------|
A|-------------------------------------------------------------------------------------------------------|
E|-------------------------------------------------------------------------------------------------------|

e|--------------------------------------------------------------------------------|
B|18--18--18--18--18--18--20----20--15-13-12-13-15--15--15--15--15--15--15--15--15|
G|--------------------------------------------------------------------------------|
D|--------------------------------------------------------------------------------|
A|--------------------------------------------------------------------------------|
E|--------------------------------------------------------------------------------|

e|-------------------------------------------------------------------------------------------------------:||
B||:20-20-16-16-16-16-16-16-20-20-15-15-15-15-15-15-20-20-13-13-13-13-13-13-20-20-18-18-18-18-18-18-20-20:||
G||:-----------------------------------------------------------------------------------------------------:||
D||:-----------------------------------------------------------------------------------------------------:||
A||:-----------------------------------------------------------------------------------------------------:||
E||:-----------------------------------------------------------------------------------------------------:||

Gitarr 2:
E||:---------------|---------18----:||
B||:20--18--20--18-|-20--18------18:||
G||:---------------|---------------:||
D||:---------------|---------------:||
A||:---------------|---------------:||
E||:---------------|---------------:||

************************************

| /  Slide up


************************************

Almost there ...

Sign in to get your own page with links to favourite songs and more. You are just one click away...

Login with Facebook Login with Google