Log in

One click and you are in

Login with Facebook Login with Google

Why sign up and log in

Guitar Tabs Explorer
Kennyhoopla bass tabs for How will i rest in peace if im buried by a highway

How Will I Rest In Peace If I'm Buried By A Highway bass tab - Kennyhoopla

Kennyhoopla bass tabs for How will i rest in peace if im buried by a highway

Bass tabs

  • Difficulty: Beginner
Tuning: Standard (E A D G)


Intro:
(4x quarter notes silence)
G |------------------------|
D |------------------------|
A |------------------------|
E |------------------------|


Chorus:

G||----------------------------|----------------------------|
D||----------------------------|----------------------------|
A||--4-----4--4--4--4--4--4----|--2-----2--2-----2--2--2----|
E||----------------------------|----------------------------|

G |----------------------------|----------------------------||
D |--2-----2--2--2--2--2--2----|--4-----4--4-----4--4--4----||
A |----------------------------|----------------------------||Repeat 9x
E |----------------------------|----------------------------||


G||----------------------------|----------------------------|
D||----------------------------|----------------------------|
A||--4-----4--4--4--4--4--4----|--2-----2--2-----2--2--2----|
E||----------------------------|----------------------------|

G |----------------------------|----------------||
D |--2-----2--2--2--2--2--2----|--4.------------||
A |----------------------------|----------------||10th time
E |----------------------------|----------------||



Verse:

G||----------------------------|----------------------------|
D||----------------------------|----------------------------|
A||--4--4-----4--4-----4--4----|-----2--2-----2-------------|
E||----------------------------|----------------------------|

G |----------------------------|----------------------------||
D |----------------------------|-----4--4-----4-----2-------||
A |--2--2-----2--2-----2--2----|----------------------------||Repeat 4x
E |----------------------------|----------------------------||



Chorus:


G||----------------------------|----------------------------|
D||----------------------------|----------------------------|
A||--4-----4--4--4--4--4--4----|--2-----2--2-----2--2--2----|
E||----------------------------|----------------------------|

G |----------------------------|----------------------------||
D |--2-----2--2--2--2--2--2----|--4-----4--4-----4--4--4----||
A |----------------------------|----------------------------||Repeat 4x
E |----------------------------|----------------------------||



Bridge:

G||----------------|----------------|----------------|----------------||
D||----------------|----------------|----------------|----------------||
A||--4--4--4--4----|----------------|--2--2--2--2----|----------------||Repeat 5x
E||----------------|--4--4--4--4----|----------------|--2--2--2--2----||


G||----------------|----------------|----------------------------|----------------------------||
D||----------------|----------------|----------------------------|----------------------------||
A||--4--4--4--4----|----------------|--2--2--2--2--2--2--2--2----|----------------------------||
E||----------------|--4--4--4--4----|----------------------------|--2--2--2--2--2-------------||



Chorus :

G||----------------------------|----------------------------|
D||----------------------------|----------------------------|
A||--4-----4--4--4--4--4--4----|--2-----2--2-----2--2--2----|
E||----------------------------|----------------------------|

G |----------------------------|----------------------------||
D |--2-----2--2--2--2--2--2----|--4-----4--4-----4--4--4----||
A |----------------------------|----------------------------||Repeat 8x
E |----------------------------|----------------------------||



Outro:

G||-------|-------|-------|------|
D||-------|-------|--2----|--4---|
A||--4----|--2----|-------|------|Repeat 3x
E||-------|-------|-------|------|

4th time is 4x whole notes silence
G|-------|-------|-------|-------||
D|-------|-------|-------|-------||
A|-------|-------|-------|-------||
E|-------|-------|-------|-------||

Almost there ...

Sign in to get your own page with links to favourite songs and more. You are just one click away...

Login with Facebook Login with Google