Log in

One click and you are in

Login with Facebook Login with Google

Why sign up and log in

Guitar Tabs Explorer
Ken Ashcorp bass tabs for Suck my rock

Bass tabs

Tuning: Standard (E A D G)


Intro:
G|---------------------------------------------------------------------------|
D|--------------------------------------------------------------6-6-6-5-4-5-6|
A|-4---------7-6-5-34---------7-6-5-34---------7-6-5-34----------------------|
E|---0-2-3-4----------0-2-3-4----------0-2-3-4----------0-2-3-4--------------|
Verse:
G|---------------------------------------------------------------------------|
D|---------------------------------------------------------------------------|
A|-444444444444444444444-7-7-7-3-3-3-3-3-7-7-7-0-0-0-0-0-9-9-9-7(x8)-----4-4-|
E|------------------------------------------------------------------4(x8)----|

G|---------------------------------------------------------------------------|
D|---------------------------------------------------------------------------|
A|-4-4-4-7-4-4-4-4-4-4-4-7-4-4-4-4-4-4-4-7-7-7-3-3-3-3-3-7-7-7-0-0-0-0-0-9-9-|
E|---------------------------------------------------------------------------|

G|---------------------------------------------------------------------------|
D|---------------------------------------------------------------------------|
A|-9-7(x8)-----4-4-4-4-4-7-4-4-4-4-4-4-4-7-4-4-------------------------------|
E|--------4(8x)--------------------------------------------------------------|


Chorus:
G|---------------------------------------------------------------------------|
D|---------------------------------------------------------------------------|
A|-1-1--2-2--3-3-------1-1--2-2--3-3-------1-1--2-2--3-3-------1-1-1-1-2-2-2-|
E|---------------1-2-3---------------3-2-1---------------1-2-3---------------|

G|---------------------------------------------------------------------------|
D|---------------------------------------------------------------------------|
A|-2-------------------------------------------------------------------------|
E|---------------------------------------------------------------------------|

(Repeat Intro:)
G|---------------------------------------------------------------------------|
D|--------------------------------------------------------------6-6-6-5-4-5-6|
A|-4---------7-6-5-34---------7-6-5-34---------7-6-5-34----------------------|
E|---0-2-3-4----------0-2-3-4----------0-2-3-4----------0-2-3-4--------------|

At end of Intro: until song ends:
G|---------------------------------------------------------------------------|
D|---------------------------------------------------------------------------|
A|-4-4-4-4-4-4-4-4-4-4-4-4-4-4-4-4-44----------------------------------------|
E|---------------------------------------------------------------------------|

↓ Add and view comments below ↓

What do you think about this song and these tabs?

Add your comments, questions, rant or a thumbs up below.

Almost there ...

Sign in to get your own page with links to favourite songs and more. You are just one click away...

Login with Facebook Login with Google