Log in

One click and you are in

Login with Facebook Login with Google

Why sign up and log in

Guitar Tabs Explorer
Kellylee Evans bass tabs for Amazing

Bass tabs

Tuning: Standard (E A D G)

This one is ideally played on an Upright-Bass - accordingly, the left hand position is further down the neck.


Intro:
No Bass until (0:39)
Chorus:
G||---1-3-----|------------|---1-3-----|------------||
D||-4---------|-3---1------|-4---------|-3----------||
A||--------1--|----4-4--1--|--------1--|-----3---1--||
E||-----------|------------|-----------|------------||


Verse:
G||-----------|---------------||
D||-1--3----1-|-3--------1-3--||
A||-----1-----|---3--1-1------|| x2
E||-----------|---------------||


Chorus:
G||---1-3-----|------------||
D||-4---------|-3----------||
A||--------1--|-----3---1--|| x4
E||-----------|------------||


Verse:
G||-----------|---------------||
D||-1--3----1-|-3--------1-3--||
A||-----1-----|---3--1-1------|| x2
E||-----------|---------------||


Chorus:
G||---1-3-----|------------||
D||-4---------|-3----------||
A||--------1--|-----3---1--|| x6
E||-----------|------------||


Break for 6 Bars

Modulation to Cm(basically the same, just one whole-step higher)

G||---3-5-----|--0-----------||
D||-6---------|-----0------3-||
A||--------3--|--------3-----|| x6
E||-----------|--------------||

G||--------0---|---0-0----------0--||
D||-3----3-----|-0------0---0-3----||
A||---------3--|----------3--------|| x2
E||------------|-------------------||


Outro:
G||---3-5-----|--0----------|---3-5-----|--0----------||
D||-6---------|-----0-----3-|-6---------|-----0-------||
A||--------3--|--------3----|--------3--|--------3----||
E||-----------|-------------|-----------|-------------||


Have fun :)

Almost there ...

Sign in to get your own page with links to favourite songs and more. You are just one click away...

Login with Facebook Login with Google