Log in

One click and you are in

Login with Facebook Login with Google

Why sign up and log in

Guitar Tabs Explorer
R Kelly bass tabs for Ignition remix

Bass tabs

There's only two parts to it. Line A happens for the vast majority of the song,
and Line B just happens on the bridge.


CAPO 1st FRET

Line A
G ----------------|----------------|----------------|----------------|
D ----------------|----------------|----------------|0---*-0-0*------|
A ------0h2*------|3-------2-------|0---*-0-0*--0*--|----------------|
E 3---*-------3*--|----------------|----------------|------------0*--|
 '  '  '  '  '  '  '  '  '  '  '  '  '  '  '  '

Line B
G ----------------|----------------|----------------|--7---5---4---5-|--7---5---4---5-|
D ----------------|----------------|----------------|0-~-0-~-0-~-0-~-|0-~-0-~-0-~-0-~-|
A ------0h2*------|3-------2-------|0---*-0-0*--0*--|----------------|----------------|
E 3---*-------3*--|----------------|----------------|----------------|----------------|

Almost there ...

Sign in to get your own page with links to favourite songs and more. You are just one click away...

Login with Facebook Login with Google