Log in

One click and you are in

Login with Facebook Login with Google

Why sign up and log in

Guitar Tabs Explorer
The Kelly Family tabs for I cant help myself

Guitar tabs

Kelly Family - "I can't help myself"


tabed by masohaso (Daniel Szkotak)
e-mail: masohaso@wp.pl
capo on first fret
Frets count at second fret


Intro

E1|-------------------------------|--------------------------------||
H2|--3-5--3----------3-5-2/3------|------3/5-3------3h5-3----------||
G3|---------5-5-------------5-5-0-|----2-2-----5-2--0--------------||
D4|-------------------------------|--3-----------------------------||
A chord diagramA5A5|--3----------------------------|--------------------------------||
A chord diagramE6E6|------------------6------------|--------------------------------||

Zwrotka

Verse=20
                                 4x

E1|-------0--------------0--------|--------1---------------3--------||
H2|-----1----1---1-----1----1---1-|------1----1---1------3----3---3-||
G3|---0--------0-----2--------2---|----2--------2------4--------4---||
D4|-------------------------------|--3------------------------------||
A chord diagramA5A5|-3--------------0--------------|---------------------------------||
A chord diagramE6E6|-------------------------------|------------------3--------------||


    C: 030210=20
    F: 133211
    G: 355433
    G7: 320001
    Am: x02210=20

Ref

Chorus

A chord diagramC majorC  A chord diagramFF  A chord diagramC majorC  A chord diagramG+G
A chord diagramC majorC  A chord diagramFF  A chord diagramG7G7


Verse

A chord diagramC majorC  A chord diagramA minorAm  A chord diagramFF  A chord diagramG+G


Have fun

Other versions of I Can't Help Myself

I can't help myselfChords

Almost there ...

Sign in to get your own page with links to favourite songs and more. You are just one click away...

Login with Facebook Login with Google