Log in

One click and you are in

Login with Facebook Login with Google

Why sign up and log in

Guitar Tabs Explorer
Keith Sweat bass tabs for How deep is your love

How Deep Is Your Love bass tab by Keith Sweat

Keith Sweat bass tabs for How deep is your love

Bass tabs

ATTENTION: 4 String Bass Players Just Play The Octave Of The (B) String,
      Or Detune Your (E) String To A Low (B) And Everything Else
      Down To The Proper String Note.


              The Beginning Of Track
                 0:00 - 3:15
G |-----------------|-----------------|-----------------|-----------------|
D |-----------------|-----------------|-----------------|-----------------|
A |-----------------|-----------------|-----------------|-----------------|
E |-7-5-------------|---5-7-5---------|-----------------|---5-7-5---------|
B |-----3-5-7-5-----|-5---------------|-3-5-7-5---------|-5---------------|
  1 & 2 & 3 & 4 &  1 & 2 & 3 & 4 &  1 & 2 & 3 & 4 &  1 & 2 & 3 & 4 &

               The Change Up Part
                3:15 - 3:43
G |-----------------|-----------------|-----------------|-----------------|
D |-----------------|-----------------|-----------------|-----------------|
A |-4-5-4-----------|-----------------|-2-3-4-5-4-2-----|-----------------|
E |-----------------|---------0-1-2---|-----------------|-----------------|
B |-----------------|-----------------|-----------------|-3-4-5-----------|
  1 & 2 & 3 & 4 &  1 & 2 & 3 & 4 &  1 & 2 & 3 & 4 &  1 & 2 & 3 & 4 &

               Ending Of Track
                 3:43 - END
G |-----------------|-----------------|-----------------|-----------------|
D |-----------------|-----------------|-----------------|-----------------|
A |-----------------|-----------------|-----------------|-----------------|
E |-7-5-------------|---5-7-5---------|-----------------|---5-7-5---------|
B |-----3-5-7-5-----|-5---------------|-3-5-7-5---------|-5---------------|
  1 & 2 & 3 & 4 &  1 & 2 & 3 & 4 &  1 & 2 & 3 & 4 &  1 & 2 & 3 & 4 &

↓ Add and view comments below ↓

What do you think about this song and these tabs?

Add your comments, questions, rant or a thumbs up below.

Almost there ...

Sign in to get your own page with links to favourite songs and more. You are just one click away...

Login with Facebook Login with Google