Log in

One click and you are in

Login with Facebook Login with Google

Why sign up and log in

Guitar Tabs Explorer
Alfredo Keil bass tabs for A protuguesa

Bass tabs

D|-2--5--3--2---5-----2-------| Instumental
A|----------------3-5---5--3-3|
E|----------------------------|

G|-------2---|----2---------|--------------|-2-2-4-----|
D|-5-2-------|--5----5-3-2--|---------2-3--|--------5--|
A|-----3-----|--------------|-3-2----------|-----------|
E|-----------|--------------|--------------|-----------|
Herois do mar, nobre povo  Nação valente, i--mortal.

G|---4--7-|-4-----------|------------|-----------|
D|-5------|---5--3--3-2-|-5---2------|---2--5----|
A|--------|-------------|---------3--|-5-------5-|
E|--------|-------------|------------|-----------|
 Levantai hoje de novo O es plendor de Portugal.

G|-------------|------------|----5-----|----3---1------|----------------------|
D|----2--------|-3--5--2--2-|-5----5---|-5---------5---|-3----1---5-5--3--2-5-|
A|-5-----3--3--|------------|----------|-------------5-|----------------------|
E|-------------|------------|----------|---------------|----------------------|
Entre as brumas da memória  Ó Pátria  Sente-se a voz dos teus egrégios avós.

G|---------------|-----------|
D|-3--1--5-5-5-3-|-2--5--5---|
A|---------------|-----------|
E|---------------|-----------|
Que há de guiar-te á vitória.

G|---5--4--|----2----|-------------|----------|
D|-5-------|-3-----5-|--------2--2-|-5--2-----|
A|---------|---------|-3---5-------|--------5-|
E|---------|---------|-------------|----------|
 Ás armas! Ás armas! Sobre a terra sobre o mar.

G|---5--4--|----2----|----5--9--7---5-5--|--------------2----2-----------5-|
D|-5-------|-3-----5-|-5-----------------|--2--3----5------------5---5-----|
A|-------------------|-------------------|---------------------------------|
E|-------------------|-------------------|---------------------------------|

↓ Add and view comments below ↓

What do you think about this song and these tabs?

Add your comments, questions, rant or a thumbs up below.

Almost there ...

Sign in to get your own page with links to favourite songs and more. You are just one click away...

Login with Facebook Login with Google