Log in

One click and you are in

Login with Facebook Login with Google

Why sign up and log in

Guitar Tabs Explorer
Keen Robert Earl chords for Mariano

Guitar chords with lyrics

Mariano

                 By Robert Earl Keen Jr.

                From the West Textures CD.

      Submitted by David Byboth (davidb@efficient.com)
Capo up 2 frets to play with record

    A chord diagramA minorAm                               A chord diagramFF
The man outside he works for me...
    A chord diagramA minorAm                               A chord diagramFF                  A chord diagramG+G
He cuts and trims the grass ...
    A chord diagramA minorAm                                 A chord diagramFF
He says that he comes from a ....
      A chord diagramA minorAm                             A chord diagramG+G                  A chord diagramA minorAm
Thats two days on a bus from here....


I fix his meals and talk to him in ....


Guitar: (Steady Travis Pick)

hhhh: Sucessive hammer

 A chord diagramA minorAm  A chord diagramFF   A chord diagramG+G
---|-1-|-3-|
-1-|-1-|---|
-2-|-2-|---|
-2-|-3-|---|
---|-1-|-2-|
---|-1-|-3-|

Intro tab....My first shot at tabbing so I apologize if it's all
wrong.







   A chord diagramA minorAm               A chord diagramFF                A chord diagramA minorAm               A chord diagramG+G       A chord diagramA minorAm
--|----------------|----------------|----------------|----3-----------|
--|------0-1hhhhh--|-----1----------|-----0-1hhhh----|0----0-------0-1|
--|---2------------|---2--2---------|---2------------|---0--0----2----|
--|--2-------------|--3----3--------|--2-------------|--0-------2-----|
--|0-------0-------|----------------|0---------------|--------0------1|
--|----------------|1-------1-------|----------------|3---------------|
   1   2   3   4

   A chord diagramA minorAm      A chord diagramFF        A chord diagramFF     A chord diagramA minorAm         A chord diagramA minorAm               A chord diagramG+G       A chord diagramA minorAm
--|----------------|----------------|----------------|----------------|
--|-----1--1---1---|1---1-------01h-|----------------|----------------|
--|---2------2---2-|--2--2----2-----|----------------|----------------|
--|--2------3------|-3-------2------|----------------|----------------|
--|0-------3-------|3------0--------|----------------|----------------|
--|----------------|----------------|----------------|----------------|


--PART-BOUNDARY=.19505161513.ZM10348.efficient2--

Almost there ...

Sign in to get your own page with links to favourite songs and more. You are just one click away...

Login with Facebook Login with Google