Log in

One click and you are in

Login with Facebook Login with Google

Why sign up and log in

Guitar Tabs Explorer
Kc And The Sunshine Band bass tabs for Shake your booty

Shake Your Booty bass tab by Kc And The Sunshine Band

Kc And The Sunshine Band bass tabs for Shake your booty

Bass tabs

Tuning: Standard (E A D G)


Intro:
G|-----------------------------------------------------------|
D|-10----10-8----------10--------10-8------------------------|
A|-10----------10-8-------10-----------10-8-----0h1-0h-1h-2h-|
E|-8-------------------------8-------------------------------|

Verse:
G|--------------------5h3--------------------------|
D|------------------------5------------------------|
A|-3---3-3---3----3-3----------------------------1-|
E|-------------------------1---1-1--1---1-1--1h3---|
-
G|--------------------5h3-------------------------|
D|------------------------5-----------------------|
A|-3---3-3---3----3-3-----------------------------|
E|--------------------------1---1-1--1---1-1--1h3-|


Chorus:
G|-----------------------------------------------|
D|-----------------------------------------------|
A|----------------------3---3--6(b)--3---3--6(b)-|
E|-4--4-4--4--6--6-6--6--------------------------|

G|----------------------------------------------------|
D|----------------------------------------------------|
A|---------------------------3---3--6(b)--3---3--6(b)-|
E|-4--4-4--4h-5h6--6--6-6--6--------------------------|

Verse:
G|--------------------5h3---------------------------|
D|------------------------5-------------------------|
A|-3---3-3---3----3-3-----------------------------1-|
E|--------------------------1---1-1--1---1-1--1h3---|

G|--------------------5h3-------------------------|
D|------------------------5-----------------------|
A|-3---3-3---3----3-3-----------------------------|
E|--------------------------1---1-1--1---1-1--1h3-|


Chorus:(Variant)
G|----------------------------------------------------|
D|----------------------------------1---------------1-|
A|---------------------3-3-3-3-1-3-----3-3-3-3-1-3----|
E|-4--4-4--4-6--6-6--6--------------------------------|

G|--------------------------------------------------|
D|-----------------------------------1------------1-|
A|---------------------3-3-3-3-1-3-----3-3-3-1-3----|
E|-4--4-4--4-6--6-6--6------------------------------|

Interlude:
G|-------------------------------------------------------------------|
D|---------------1----------------1-------------1--------------------|
A|-3-3-3-3-1-3-3---3-3-3-3-1-3-3----3-3-3-3-1-3---3------------------|
E|--------------------------------------------------1--1-1--1-1--1-1-|

G|--------------------------------------------------------------|
D|---------------1----------------1-------------1---------------|
A|-3-3-3-3-1-3-3---3-3-3-3-1-3-3----3-3-3-3-1-3---3-------------|
E|---------------------------------------------------1--1--1--1-|


Chorus:
G|--------------------------------------------------|
D|--------------------------------------------------|
A|---------------------3-3---3--6(b)--3-3---3--6(b)-|
E|4--4-4--4--6--6-6--6------------------------------|

G|------------------------------------------------------|
D|------------------------------------------------------|
A|--------------------------3-3---3--6(b)--3-3--3--6(b)-|
E|4--4-4--4h-5h6--6--6-6--6-----------------------------|

Final:
G|--------------------5h3---------------------------|
D|------------------------5-------------------------|
A|-3---3-3---3----3-3-----------------------------1-|
E|--------------------------1---1-1--1----11--1h3---|

G|--------------------5h3-------------------------|
D|------------------------5-----------------------|
A|-3---3-3---3----3-3-----------------------------|
E|--------------------------1---1-1--1---1-1--1h3-|

G|--------------------5h3---------------------------|
D|------------------------5-------------------------|
A|-3---3-3---3----3-3-----------------------------1-|
E|--------------------------1---1-1--1---1-1--1h3---|

G|--------------------5h3-------------------------|
D|------------------------5-----------------------|
A|-3---3-3---3----3-3-----------------------------|
E|--------------------------1---1-1--1---1-1--1h3-|

G|--------------------------------------------------|
D|--------------1----------------1------------------|
A|3-3-3-3-1-3-3---3-3-3-3-1-3-3---------------------|
E|---------------------------------1--1-1--1-1--1-1-|

G|--------------------------------------------------|
D|---------------1---------------1------------------|
A|-3-3-3-3-1-3-3---3-3-3-3-1-3-3--------------------|
E|---------------------------------1--1-1--1-1--1-1-|

G|--------------------------------------------------|
D|---------------1---------------1------------------|
A|-3-3-3-3-1-3-3---3-3-3-3-1-3-3--------------------|
E|---------------------------------1--1-1--1-1--1-1-|


************************************

| h Hammer-on


************************************

Almost there ...

Sign in to get your own page with links to favourite songs and more. You are just one click away...

Login with Facebook Login with Google