Log in

One click and you are in

Login with Facebook Login with Google

Why sign up and log in

Guitar Tabs Explorer
Kaya bass tabs for Sim  la limi re

Bass tabs

Originally Song by : Kaya
Transcribed by Kevin Veerabadran - Tabbed by Ashley Ittoo
As played by Sega Beach, Toulouse (http://atem2000.free.fr)

Sega Beach is Vassant Sewraj(Rhythm Guitar), Kevin Veerabadran (Bass,Drums, Voice),
Ashley Haulkaury (Voice), Bhaavna Deonarrain - Yogini Pyeneeandee (Voice/Chorus),
J.B (Keyboard) Joel Sooriah/Reza Moosun (Percussions, Ravanne/Djembé),Ashley Ittoo (Bass)

Set time signature to 3/4
Mesure : 3/4
INTRO
G|-------------|-------------|-------------|-------------|
D|--55---------|--77---------|--99---------|--99---------|  x 2
A|3----3---3---|5----5---5---|7----7---7---|7----7---7---|
E|-------3---3-|-------5---5-|-------7---7-|-------7---7-|


CHORUS/REFRAIN
Sa même simé tone montrer moi...
G|------------------------|--------------0----------|
D|----------2---02--20----|----------0-2---4-2-20---|
A|--23-5-00---2--------2--|--23-5-00--------------2-|
E|3---------------------3-|3------------------------|


COUPLET
Mo conseil li vine dans la limière...
G|-------------|-------------|
D|-------------|-------------| x 4
A|3----3---3---|7----7---7---|
E|--33---3---3-|--77---7---7-|


BRIDGE
pep moris bizin aprane la richesse...
G|-------------|-------------|
D|--55---------|--99---------| x 4
A|5----5---5---|7----7---7---|
E|-------5---5-|-------7---7-|

↓ Add and view comments below ↓

What do you think about this song and these tabs?

Add your comments, questions, rant or a thumbs up below.

Almost there ...

Sign in to get your own page with links to favourite songs and more. You are just one click away...

Login with Facebook Login with Google