Log in

One click and you are in

Login with Facebook Login with Google

Why sign up and log in

Guitar Tabs Explorer
Katrina And The Waves bass tabs for Love shine a light

Love Shine A Light bass tab by Katrina And The Waves

Katrina And The Waves bass tabs for Love shine a light

Bass tabs

*****************************************************************
*								*
*    Bass-	  					*
*	Katrina and the Waves       			*
*	Love shine a light 				 	*
*	Copyright 1997						*
*	composed by Kimberley Rew				*
*								*
*****************************************************************

Transcribed by Mark Timmermans <zuurvlees@hotmail.com>
http://www.mytholic.nl

Verse:

G||---------------------|-----------------3-3--|---------------------|----------------------||
D||-------3-3--5-5--7-7-|-------3-3------------|--7-7--3-3--2-2--7-7-|--3-3-----------------||
A||---3-3---------------|--3-3-------3-3-------|---------------------|-------3-3-------3-3--||
E||---------------------|----------------------|---------------------|------------3-3-------||


Chorus:

G||---------------------|----------------------|---------------------|----------------------||
D||-------3-3--5-5--7-7-|-------3-3--5-5--7-7--|--3-3----------------|--3-3-----------------||
A||---3-3---------------|--3-3-----------------|-------3-3-----------|-------3-3-------3-3--||
E||---------------------|----------------------|------------0-0--5-5-|------------3-3-------||


G |---------------------|----------------------|
D |-------3-3--5-5--7-7-|--3-3-----------------|
A |---3-3---------------|-------3-3-------3-3--|
E |---------------------|------------3-3-------|

Almost there ...

Sign in to get your own page with links to favourite songs and more. You are just one click away...

Login with Facebook Login with Google