Log in

One click and you are in

Login with Facebook Login with Google

Why sign up and log in

Guitar Tabs Explorer
Katie Pruitt guitar tabs for Expectations

Guitar tabs with lyrics

Tuning: Standard (E A D G B E)


Intro/riff 1:

e|---------------------------------------------------------------------------|
B|---------------------------------------------------------------------------|
G|--5--------------5----------------7--------------7-------------------------|  x2
D|--7-7-7-7-7p5----7-7-7-7-7p5------9-9-9-9-9p7----9-9-9-9-9h10p9------------|
A|-(8)------------(8)-------------(10)-----------(10)------------------------|
E|---------------------------------------------------------------------------|

Guitar 2:

e|--12p10-8-7h8p7--------12-----10---8/7--7h8p7--------12-----10---8/7-7h8p7-|
B|----------------10--8------8------------------10--8------8-----------------|
G|---------------------------------------------------------------------------|
D|---------------------------------------------------------------------------|
A|---------------------------------------------------------------------------|
E|---------------------------------------------------------------------------|

Guitar 2 between verses:

e|-----8--------8--------10--------10h12p10----------------------------------|
B|-10------10-------12--------12---------------------------------------------|
G|-------------------------------------------------------X2------------------|
D|---------------------------------------------------------------------------|
A|---------------------------------------------------------------------------|
E|---------------------------------------------------------------------------|


Solo:
   A chord diagramFF                A chord diagramG MajorG
e|-----8--------8-|-------10--------10h12p10--|------------------------------|
B|-10------10-----|--12--------12-------------|------------------------------|
G|----------------|---------------------------|----------X2------------------|
D|----------------|---------------------------|------------------------------|
A|----------------|---------------------------|------------------------------|
E|----------------|---------------------------|------------------------------|
   A chord diagramFF                     A chord diagramG MajorG
e|---------------------|------------------3-----------------------------------|
B|--3/5-8----8h10----8-|--5\3--5p3---3h5-----5--3--------3--------------------|
G|--4/5---9-------9----|--5\4----------------------4--5-----4--2--------------|
D|---------------------|------------------------------------------------------|
A|---------------------|------------------------------------------------------|
E|---------------------|------------------------------------------------------|
   A chord diagramFF                  A chord diagramG MajorG
e|-----------------|---------------10-----------------------------------------|
B|--0---1---3---5--|-8---10---12-------13--12---------------------------------|
G|-----------------|----------------------------------------------------------|
D|-----------------|----------------------------------------------------------|
A|-----------------|----------------------------------------------------------|
E|-----------------|----------------------------------------------------------|
   A chord diagramFF                           A chord diagramG MajorG
e|---------------------------|------------------------------------------------|
B|--11/13-13-13-13-13\11-----|-/15-15-15-15-15\13-----------------------------|
G|--12/14-14-14-14-14\12--x2-|-/16-16-16-16-16\14--x2-------------------------|
D|---------------------------|------------------------------------------------|
A|---------------------------|------------------------------------------------|
E|---------------------------|------------------------------------------------|
   A chord diagramFF                           A chord diagramG MajorG
e|---------------------------|----------------------------------------------------------|
B|--11/13-13-13-13-13\11-----|-/15-15-15-15-15\13---1515151515151515-1717171717171717---|
G|--12/14-14-14-14-14\12--x2-|-/16-16-16-16-16\14---1616161616161616-1717171717171717---|
D|---------------------------|----------------------------------------------------------|
A|---------------------------|----------------------------------------------------------|
E|---------------------------|----------------------------------------------------------|

************************************

| (n) Ghost note
| h   Hammer-on
| p   Pull-off
| r   Release
| b   Bend
| br  Bend release
| pb  Pre-bend
| pbr Pre-bend release
| /   Slide up
| \   Slide down


************************************

Intro:
A chord diagramFF  A chord diagramG MajorG
A chord diagramFF  A chord diagramG MajorG C/G*
A chord diagramFF  A chord diagramG MajorG C/G*
A chord diagramFF  A chord diagramG MajorG C/G*
*quick strum before going into A chord diagramFF

A chord diagramFF
Some days I can't get outta my own head
A chord diagramG MajorG                                       A chord diagramC/GC/G  A chord diagramFF
"You could start by getting outta bed", she said

One day, you know we'll both be dead
A chord diagramG MajorG                              A chord diagramC/GC/G
So why don't we do some living?
A chord diagramFF
Some days I don't know who to trust
A chord diagramG MajorG
In the rain my spirit starts to rust
A chord diagramFF
She said, "You're being way too generous
A chord diagramG MajorG                                 A chord diagramC/GC/G
With all the fucks you're giving"

(riff 1)
A chord diagramFF  A chord diagramG MajorG
A chord diagramFF  A chord diagramG MajorG A chord diagramC/GC/G

A chord diagramFF
Wasn't getting much out of life at all
A chord diagramG MajorG                                       A chord diagramC/GC/G
Was scared to jump so I was scared to fall
A chord diagramFF
I used to think the world was pretty small
A chord diagramG MajorG                           A chord diagramC/GC/G
From the comfort of my room
A chord diagramFF
Lately I've been hard to reach
A chord diagramG MajorG                              A chord diagramC/GC/G
Standin' on this mountain peak
A chord diagramFF
I learned that fear is just the false belief
A chord diagramG MajorG                                A chord diagramC/GC/G
That there is nothing you can do

(riff 1)
A chord diagramFF  A chord diagramG MajorG
A chord diagramFF  A chord diagramG MajorG
(solo)
A chord diagramFF  A chord diagramG MajorG
A chord diagramFF  A chord diagramG MajorG
A chord diagramFF  A chord diagramG MajorG
A chord diagramFF  A chord diagramG MajorG

A chord diagramFF
All those years of bad test scores
A chord diagramG MajorG                                              A chord diagramC/GC/G
Still tryna figure out what I was studying for
A chord diagramFF
But once you walk out that classroom door
A chord diagramG MajorG                                   A chord diagramC/GC/G
Nobody tells you where you're going
A chord diagramFF
It seems like everyone I know
A chord diagramG MajorG
Is just an actor putting on a show
A chord diagramFF
I hope one day I'm wise enough to know
A chord diagramG MajorG                     A chord diagramC/GC/G
There's no way of knowing

A chord diagramFF
I hate it, so frustratin'
A chord diagramG MajorG
The weight of expectations
        A chord diagramC/GC/G   A chord diagramFF
Bringing you down
A chord diagramFF
I'm fed up, I won't let the
A chord diagramG MajorG
Weight of expectations
        A chord diagramC/GC/G   A chord diagramFF
Bringing me down
A chord diagramFF
I hate it, so frustratin'
A chord diagramG MajorG
The weight of expectations
        A chord diagramC/GC/G   A chord diagramFF
Bringing you down
A chord diagramFF
I'm fed up, I won't let the
A chord diagramG MajorG
Weight of expectations
         A chord diagramC/GC/G   A chord diagramFF
Bringing me down


Riff 1 2x, end on A chord diagramFF

↓ Add and view comments below ↓

What do you think about this song and these tabs?

Add your comments, questions, rant or a thumbs up below.

Almost there ...

Sign in to get your own page with links to favourite songs and more. You are just one click away...

Login with Facebook Login with Google