Log in

One click and you are in

Login with Facebook Login with Google

Why sign up and log in

Guitar Tabs Explorer
Kashmir tabs for The story of jamie

Guitar tabs with lyrics

The Story Of Jamie Fame Flame
-----------------------------
(also known as 'Everybody Knows My Name')
by Kashmir
from the album Travelogue

Intro & chorus:

  A chord diagramE5E5   A chord diagramD/F#D/F# A chord diagramG5G5         A chord diagramB5B5   A chord diagramD5D5   A chord diagramE5E5
|-----------------------------------------------||
|----------------------------------------------o||
|-------------------------------------12/14\12-o||
|---------------------------7----9--------------||
|-2----5----5----------9----5----7----10/12\10--||
|-0----2----3----------7------------------------||
				      |~~~~~~~~~
(The little octave slide lick is a fill I've heard
thrown in quite a few times live. But don't
overdo it for God's sake...)


Verse: (listen to record for accurate rhythm!)

  A chord diagramE5E5        A chord diagramA5A5         A chord diagramG5G5             A chord diagramE5E5
|-----------------------------------------------||
|----------------------------------------------o||
|----------------------------------------------o||
|-----------------------------------------------||
|-2--2------7-x-7------5--5-----------2---------||
|-0--0------5-x-5------3--3-----------0---------||

(There's probably some variations on that. Feel free!)

As for the solo and middle section I really don't know. Except live
there's a really cool jazzy clean part in the middle. It has
a '3/8 against 4/4'-feel which may take a little time to
get into for the unintiated...

  A chord diagramE9E9                                             A chord diagramF9F9
|-7-7--x-x--x-x--7-7--x-x--x-x--7-7--x-x--x-x--7-8---||
|-7-7--x-x--x-x--7-7--x-x--x-x--7-7--x-x--x-x--7-8--o||
|-7-7--x-x--x-x--7-7--x-x--x-x--7-7--x-x--x-x--7-8--o||
|-6-6--x-x--x-x--6-6--x-x--x-x--6-6--x-x--x-x--6-7---||
|-7-7--x-x--x-x--7-7--x-x--x-x--7-7--x-x--x-x--7-8---||
|----------------------------------------------------||

If you've ever seen the band live you should have fun
dancing around to that one...

There's no guitar playing during the third verse...

And now for something completely and utterly silly: The Lyrics (rap style)

1st Verse:

1st Chorus:


2nd Verse:

2nd Chorus:

3rd Verse:

3rd Chorus:

(This is done from memory so there might be a few errors. Please correct me!)

Er der egentlig andre end danskere der l‘ser dette? Hvorfor s† skrive
p† engelsk?

	Hilsen wichmann@fys.ku.dk

P.S.: Check min v‘mmeside:

	http://fys.ku.dk/~wichmann/

Almost there ...

Sign in to get your own page with links to favourite songs and more. You are just one click away...

Login with Facebook Login with Google