Log in

One click and you are in

Login with Facebook Login with Google

Why sign up and log in

Guitar Tabs Explorer
Kari Lynn bass tabs for Summer day

Bass tabs

Tuning: EADG

G|------------------------------------------------------------------------------------------------|
D|------------------------------------------------------------------------------------------------|
A|3-----------3---5---7---8-----------8---7---5---3-----------------------------------------------|
E|------------------------------------------------------------------------------------------------|

0:08

G|------------------------------------------------------------------------------------------------|
D|------------------------5-------------------5---------------------------7-------------------7---| x3
A|3-------------------7---------------7-----------5-------------------8---------------8-----------|
E|------------------------------------------------------------------------------------------------|

G|------------------------------------------------------------------------------------------------|
D|------------------------------------------------------------------------------------------------|
A|3-----------3---5---7---8-----------8---7---5---3-----------------------------------------------|
E|------------------------------------------------------------------------------------------------|

0:37

G|------------------------------------------------------------------------------------------------|
D|------------------------5-------------------5---------------------------7-------------------7---| x3
A|3-------------------7---------------7-----------5-------------------8---------------8-----------|
E|------------------------------------------------------------------------------------------------|

G|------------------------------------------------------------------------------------------------|
D|--------------------------------------------7---10----------------------------------------------|
A|3-----------3-------7---8-----------8-----------------------------------------------------------|
E|------------------------------------------------------------------------------------------------|

1:06

G|------------------------------------------------------------------------7-------------------7---|
D|------------------------7-------------------7---5-------------------9---------------9-----------|
A|5-------------------8---------------8-----------------------------------------------------------|
E|------------------------------------------------------------------------------------------------|

G|------------------------------------------------------------------------------------------------|
D|------------------------5-------------------5---------------------------------------------------|
A|3-------------------7---------------7-----------3-----------------------------------------------|
E|------------------------------------------------------------------------------------------------|

1:21

G|------------------------------------------------------------------------7-------------------7---|
D|------------------------7-------------------7---5-------------------9---------------9-----------|
A|5-------------------8---------------8-----------------------------------------------------------|
E|------------------------------------------------------------------------------------------------|

G|------------------------------------------------------------------------------------------------|
D|------------------------3-----------3-----------------------------------------------------------|
A|3-----------3-----------------------------------3-----------------------------------------------|
E|------------------------------------------------------------------------------------------------|

1:37

G|------------------------------------------------------------------------------------------------|
D|------------------------5-------------------5---------------------------7-------------------7---| x2
A|3-------------------7---------------7-----------5-------------------8---------------8-----------|
E|------------------------------------------------------------------------------------------------|

G|------------------------------------------------|
D|------------------------5-------------------5---|
A|3-----------3-------7---------------7-----------|
E|------------------------------------------------|

G|------------------------------------------------------------------------------------|
D|------------------------------------------------------------------------------------|
A|5-----------------------------------------------------------------------------------|
E|--------------------------------3---------------------------------------------------|

G|------------------------------------------------------------|
D|------------------------------------------------------------|
A|3-----------3---5---7---8-----------8-----7-----5-------3---|

↓ Add and view comments below ↓

What do you think about this song and these tabs?

Add your comments, questions, rant or a thumbs up below.

Almost there ...

Sign in to get your own page with links to favourite songs and more. You are just one click away...

Login with Facebook Login with Google