Log in

One click and you are in

Login with Facebook Login with Google

Why sign up and log in

Guitar Tabs Explorer
Karate bass tabs for Number six

Bass tabs with lyrics

NUMBER SIX (Bassline)
               As recorded by Karate
             (From the 2000 Album UNSOLVED)

This nice and slow bluesy number has a walking bassline
that keeps things interesting without overdoing it. The
next to last measure is marked tremelo picking (TP), but
is actually just a long measure of ending buildup where
everyone one just jams on the A until it dies down.
Words by Geoff Farina Music by Karate
Transcribed by Craig Wynne

Q=80
4/4


Intro
 H..    +T S.  W     W      W
|------------------|----------|-----------|------|
|------------------|----------|-----------|------|
|-7---------(7)-3--|----------|-3/--------|-7----|
|------------------|-5--------|-----------|------|


 W     W     W     H  H
|----------|----------|----------|-----------|
|----------|----------|----------|-----------|
|-8--------|----------|----------|-7----5----|
|----------|-5--------|-3--------|-----------|


 H  H   W     W     H  +E E. E.
|-----------|----------|----------|----------4------|
|-----------|----------|----------|-5----(5)----5---|
|-4---------|-5--------|-8--------|-----------------|
|------5----|----------|----------|-----------------|

 W     H  H   H  H    W
|----------|-----------|------------|------|
|-6--------|-7----5----|-3----------|------|
|----------|-----------|------3/----|-6----|
|----------|-----------|------------|------|

       1st Verse
 W     H  H   H  H   H  H
|----------||-----------|-----------|-----------|
|----------||-----------|-5---------|------6----|
|-7--------||------3----|------5----|-7---------|
|----------||-5---------|-----------|-----------|


 H  Q  Q  H  H   H  H   H  H
|-------------|-----------|-----------|-----------|
|------9--10--|-7----5----|-3---------|-2----0----|
|-8-----------|-----------|------3----|-----------|
|-------------|-----------|-----------|-----------|


 H  H   H  H   H  E +T E +T S. S.
|-----------|-----------|------5-(5)-5-(5)-------|
|-----------|------3----|-7----------------7--6--|
|-4---------|-5---------|------------------------|
|------5----|-----------|------------------------|


 H  +E E. E.  W     H  H   H  H
|----------4-----|----------|-----------|------------|
|-5----(5)----5--|-6--------|-7----5----|-3----------|
|----------------|----------|-----------|------3/----|
|----------------|----------|-----------|------------|

              2nd Verse
 H  H   H  Q Q  H  H   H  H
|-----------|------------||-----------|-----------|
|------8----|------------||-----------|-5---------|
|-6---------|-7----------||------3----|------5----|
|-----------|------3--4--||-5---------|-----------|


 H  H   H   Q Q  H  H   H  Q +S S. S.
|-----------|-------------|-----------|--------------------|
|------6----|------10--9--|-7----5----|-3-----------0--1---|
|-7---------|-8-----------|-----------|------3--(3)--------|
|-----------|-------------|-----------|--------------------|


 H  H   H  H   H  H   H  E +T E +T S. S.
|-----------|-----------|-----------|------5-(5)-5-(5)-------|
|-2----0----|-----------|------3----|-7----------------7--6--|
|-----------|-4---------|-5---------|------------------------|
|-----------|------5----|-----------|------------------------|


 H  +E E. E.  W     H  H   H  H
|----------4-----|----------|-----------|------------|
|-5----(5)----5--|-6--------|-7----5----|-3----------|
|----------------|----------|-----------|------3/----|
|----------------|----------|-----------|------------|

                     Guitar Solo
 H  Q.  +T S.  Q.  +T S. Q  Q  H  H
|------------------|--------------------||-----------|
|------5----(5)----|--------------------||-----------|
|-6-------------6--|-7----(7)-----------||------7----|
|------------------|----------2--3/--7--||-5---------|


H  Q.  +T S.  H  Q.  +T S.
-------------------|------------------|
-------------------|------7----(7)-0--|
------7----(7)-0---|-5----------------|
-8-----------------|------------------|


 Q.  +T  S. Q.  +T S.  H  H   H  H
|--------------------------|-----------|-----------|
|-3----(3)-(0)-5----(5)-6--|-7----5----|-----------|
|--------------------------|-----------|-7----3----|
|--------------------------|-----------|-----------|


 H  H   H  H   H  Q.  +T S.  H  Q.  +T S.
|-----------|-----------|------------------|------------------|
|-----------|-----------|------7----(7)----|------5----(5)-7--|
|-0---------|-----------|-5-------------0--|-8----------------|
|------3----|-1----0----|------------------|------------------|


 H  Q.  +T S.  Q.  +T S. Q Q  H  H   H  H
|------7----(7)----|-5----(5)----------|-----------|------------|
|---------------0--|----------0--5--6--|-7----5----|-3----------|
|-5----------------|-------------------|-----------|------3/----|
|------------------|-------------------|-----------|------------|


 H  Q.  +T S.  Q Q  Q Q  H  H   H  Q.  +T S.
|------------------|--------------|-----------|------------------|
|------9----(9)-0--|-6------------|-----------|-5-------------5--|
|-7----------------|----7\--------|------3----|------3----(3)----|
|------------------|--------3--4--|-5---------|------------------|


 H  H   Q.  +T S. E +T S. E +T S.  H  H
|-----------|-------------------------------|-----------|
|------7----|-3----(3)-0--5-(5)-0--6-(6)-0--|-7----5----|
|-5---------|-------------------------------|-----------|
|-----------|-------------------------------|-----------|


H  Q +S S. S.
-------------------|
-2-----------------|
------3--(3)-2--1--|
-------------------|


 Q +S S. S. Q +S S. S.  Q.  +T S. E. +T S. S. S.
|---------------------------|-----------------------------|
|---------------------------|-----------------------5-----|
|-0--(0)-0------------------|--------------------3-----3--|
|-----------4--3--(3)-3--2--|-1----(1)-1--0--(0)----------|


  H  Q.  +T S.  H  Q.  +T S.
|-------------------|------------------|
|-------7----(7)-0--|-3----2----(2)-1--|
|-/5----------------|------------------|
|-------------------|------------------|


 H  Q +S. E T  Q.  +T S. Q Q  H  H   H  H
|-------------5-5h|=7----(7)----------|-----------|------------|
|-0----7--(7)-----|----------0--5--6--|-7----5----|-3----------|
|-----------------|-------------------|-----------|------3/----|
|-----------------|-------------------|-----------|------------|

            Outro
 H  Q +S S. S T  H   Q.  +T S.
|--------------------||-------------------|
|------6--(6)-7--8-8s||=9\----------------|
|-7------------------||-------7----(7)----|
|--------------------||----------------3--|


 W     W      W     W
|----------|-----------|----------|------|
|----------|-----------|----------|------|
|----------|-3/--------|-7--------|-8----|
|-5--------|-----------|----------|------|


 W     W     H  H   H  H
|----------|----------|-----------|-----------|
|----------|----------|-----------|-----------|
|----------|----------|-7----5----|-4---------|
|-5--------|-3--------|-----------|------5----|


 W     W     H  +E E. E.  H..    +T S.
|----------|----------|----------4-----|------------------|
|----------|----------|-5----(5)----5--|-6---------(6)-6--|
|-5--------|-8--------|----------------|------------------|
|----------|----------|----------------|------------------|


                         TP
 H  H   H  H    W     W     W
|-----------|------------|----------|----------|----------|
|-7----5----|-3----------|----------|----------|----------|
|-----------|------3/----|-6--------|-7--------|-0--------|
|-----------|------------|----------|----------|----------|


 W
-<9>----*|
--------*|
--------*|
--------*|


Duration 🏷Legend
---------------
W - whole; H - half; Q - quarter;
E - 8th; S - 16th; T - 32nd; X - 64th; a - acciaccatura

+ - note tied to previous; . - note dotted;
.. - note double dotted

Uncapitalized letters represent
notes that are staccato (1/2 duration).
Irregular groupings are notated above the duration line
Duration letters will always appear directly above the

note/fret number it represents the duration for.
Duration letters with no fret number below them represent rests.
Multi-bar rests are notated in the form Wxn, where n is the
number of bars to rest for.

Low melody durations appear below the staff

Tablature 🏷Legend
----------------
h  - hammer-on
/\ - slide into or out of (from/to "nowhere")
s  - legato slide
<n> - natural harmonic
TP - trem. picking
=  - hold bend; also acts as connecting
    device for hammers/pulls

Misc 🏷Legend
-----------
| - bar
|| - double bar
*| - double bar (ending)

Tempo markers - <E/E./Q/Q./H/H.> = BPM
(8/16=s8/s16), where s8 = swing 8ths, s16 = swing 16ths



************************************************************
Generated using Power Tab Editor by Brad Larsen -
http://powertab.guitarnetwork.org
************************************************************

Almost there ...

Sign in to get your own page with links to favourite songs and more. You are just one click away...

Login with Facebook Login with Google