Log in

One click and you are in

Login with Facebook Login with Google

Why sign up and log in

Guitar Tabs Explorer
Kansas guitar chords for The wall

Guitar chords with lyrics

Tuning: Standard (E A D G B E)

Difficulty: Intermediate

(Intro Guitar Solo)
  A chord diagramC# minorC#m                                    A chord diagramG# minorG#m             A chord diagramC# minorC#m
e|--14-12-11h12p11----------------------|---------------|---------------------7-|
B|-----------------12-12b(14)---12b(14)-|-12~~~~--------|--------9\7--5\4---4---|
G|--------------------------------------|---------------|-----------------------|
D|--------------------------------------|---------------|-----------------------|
A|--------------------------------------|---------------|-----------------------|
E|--------------------------------------|---------------|-----------------------|

  A chord diagramG# minorG#m                   A chord diagramA majorA           B/A                A chord diagramA majorA                 B/A
e|---------------------|------------------------------|------------------------------------|
B|-4~~~~------12:9:*-|-10----------12---------14-16-|-16b(17)---16-14-16~~~--------17-19-|
G|---------------------|------------------------------|------------------------------------|
D|---------------------|------------------------------|------------------------------------|
A|---------------------|------------------------------|------------------------------------|
E|---------------------|------------------------------|------------------------------------|
           *violin notes
  A chord diagramC# minorC#m                         A chord diagramG# minorG#m                               A chord diagramC# minorC#m
e|---------------------------|------19b(21)-19b(21)-19b(21)-19-|-19b(21)~~~~~----------|
B|-19b(21)--19b(21)~~~~------|---------------------------------|-----------------------|
G|---------------------------|---------------------------------|-----------------------|
D|---------------------------|---------------------------------|-----------------------|
A|---------------------------|---------------------------------|-----------------------|
E|---------------------------|---------------------------------|-----------------------|

  A chord diagramG# minorG#m                                   A chord diagramE MajorE                  A chord diagramD MajorD                 A chord diagramC#C#              A chord diagramF# minorF#m
e|-9-----------------------------------|------12~~~--10-9-|------10~~~--9-7-|-9~~~-----------------14-17-|
B|---12---------------------------9h10-|-12---------------|-10--------------|-------------------14-------|
G|------9\8----------8h9-8h9-9h11------|------------------|-----------------|-------------13/14----------|
D|----------9------9-------------------|------------------|-----------------|----------------------------|
A|------------9/11---------------------|------------------|-----------------|----------------------------|
E|-------------------------------------|------------------|-----------------|----------------------------|

  A chord diagramC#C#                      A chord diagramD#D#
e|-16~~~~-----------------------------||
B|-----------------------16~~~--------||
G|------------------------------------||
D|------------------------------------||
A|------------------------------------||
E|------------------------------------||

Verse 1:
A chord diagramG# minorG#m
I'm woven in a fantasy
D#m/F#
I can't believe the things I see
A chord diagramF#F#
The path that I have chosen now
A chord diagramBMaj7Bmaj7           Fm7b5/B
Has led me to a wall
A chord diagramBMaj7Bmaj7                 Fm7b5/B
And with each passing day
Ebsus4/Bb                 A chord diagramEb/BbEb/Bb              A chord diagramBbsus4Bbsus4      A chord diagramBb majorBb
I feel a little more like something dear was lost


Pre-Chorus:
A chord diagramBMaj7Bmaj7          C#/B
It rises now before me
A chord diagramBMaj7Bmaj7             A chord diagramC#C#         A chord diagramEb MajorEb
A chord diagramA majorA dark and silent barrier between


Chorus:
A chord diagramFm7Fm7    A chord diagramEb/GEb/G
All I am
Ebm/Gb               A chord diagramE MajorE            A chord diagramBB
And all that I would ever want to be
A chord diagramBB           A chord diagramC#C#    A chord diagramEb MajorEb
It's just a travesty

A chord diagramFm7Fm7    A chord diagramEb/GEb/G
Towering
Ebm/Gb          A chord diagramE MajorE             A chord diagramBB
Marking off the boundaries my spirit
A chord diagramC#C#    A chord diagramEb MajorEb
Would erase


Verse 2:
A chord diagramG# minorG#m
To pass beyond is what I seek
D#m/F#
I fear that I may be too weak
A chord diagramF#F#
And those are few who've seen it through
A chord diagramBMaj7Bmaj7                Fm7b5/B
To glimpse the other side
A chord diagramBMaj7Bmaj7                Fm7b5/B
The promised land is waiting
Ebsus4/Bb             A chord diagramEb/BbEb/Bb        A chord diagramBbsus4Bbsus4      A chord diagramBb majorBb
Like a maiden that is soon to be a bride


Pre Chorus:
A chord diagramBMaj7Bmaj7           C#/B
The moment is a masterpiece
A chord diagramBMaj7Bmaj7         A chord diagramC#C#                  A chord diagramEb MajorEb
The weight of indecision's in the air


Chorus:
A chord diagramFm7Fm7      A chord diagramEb/GEb/G
Standing there
Ebm/Gb             A chord diagramE MajorE                 A chord diagramBB
The symbol and the sum of all that's me
            A chord diagramC#C#    A chord diagramEb MajorEb
It's just a travesty

A chord diagramFm7Fm7    A chord diagramEb/GEb/G
Towering
Ebm/Gb           A chord diagramE MajorE                  A chord diagramBB
Blocking out the light and blinding me
  A chord diagramC#C#      A chord diagramEb MajorEb
I want to see


Bridge:
       A chord diagramBMaj7Bmaj7                                             F#add9/A#
     e|----6--4--6~~~~~----------------------14:*------|----4--2--4~~~~~-------------------16:14:*-----|
     B|--(4)---------------------12:14:16:-----------|--(2)--------------------------14:--------------|
Gtr.1G|-(4)---------------------------------------------|-(3)-----------------------15:------------------|
     D|-------------------------------------------------|-------------------------------------------------|
     A|-------------------------------------------------|-------------------------------------------------|
     E|-------------------------------------------------|-------------------------------------------------|
      |                            *vibraphone notes                                    *vibraphone notes
      |
     e|----18-------18-------16-------14-------18-16-14-|-16----------16-------14-------13-------16-14-13-|
     B|-------16-------16-------16-------16-------------|----14----14----14-------14-------14-------------|
Gtr.2G|----------16-------16-------16-------16----------|-------15----------15-------15-------15----------|
     D|-------------------------------------------------|-------------------------------------------------|
     A|-------------------------------------------------|-------------------------------------------------|
     E|-------------------------------------------------|-------------------------------------------------|

       A chord diagramAdim7Adim7                                              C#/G#                          C#sus2/G#
     e|----2--1--2~~~~~-----------------------14:*-----|---1-----1~~~~~---------9:11:13:9:*--------|
     B|--(1)--------------------------13:16:----------|-(2)--4------------------6----------4----------|
Gtr.1G|-(2)-----------------------14:------------------|(1)----------------------6----------6----------|
     D|-------------------------------------------------|-------------------------6----------6----------|
     A|-------------------------------------------------|-------------------------4----------4----------|
     E|-------------------------------------------------|-----------------------------------------------|
      |                           *vibraphone notes                                   *vibraphone notes
      |
     e|-14----------14-------13-------11-------14-13-11-|-13----------13-------11-------9-------13-11-9-|
     B|-------13-16----13-------13-------13-------------|-------14-16----14-------14------14------------|
Gtr.2G|----14-------------14-------14-------14----------|----13-------------13-------13------13---------|
     D|-------------------------------------------------|-----------------------------------------------|
     A|-------------------------------------------------|-----------------------------------------------|
     E|-------------------------------------------------|-----------------------------------------------|

       A chord diagramG#sus4G#sus4                   A chord diagramG#G#
     e|-4----------(4)----------4----------(4)----------|
     B|-4----------(4)----------4----------(4)----------|
Gtr.1G|-6----------(6)----------5----------(5)----------|
     D|-6----------(6)----------6----------(6)----------|
     A|-6----------(6)----------6----------(6)----------|
     E|-4----------(4)----------4----------(4)----------|
      |
      |
     e|-11----------11----------11----------16----------|
     B|-------14-16-------14-16-------13-16-------------|
Gtr.2G|----13----------13----------13-------------------|
     D|-------------------------------------------------|
     A|-------------------------------------------------|
     E|-------------------------------------------------|

Guitar Solo:
  A chord diagramC# minorC#m                     A chord diagramG# minorG#m                       A chord diagramC# minorC#m                         A chord diagramG# minorG#m
e|-----------------------|-------------------------|----------12-9-----9-----9-|-14--11h12-11~~~~------|
B|--------7b(9)--5-------|----12b(14)-12~~~~~~-----|---------------12-----12---|-----------------------|
G|-------------------6---|-4-----------------------|---------------------------|-----------------------|
D|-----------------------|-------------------------|---------------------------|-----------------------|
A|-----------------------|-------------------------|---------------------------|-----------------------|
E|-----------------------|-------------------------|---------------------------|-----------------------|

  A chord diagramE MajorE                       A chord diagramD MajorD                         A chord diagramC#C#                   A chord diagramD#D#
e|------12~~~-------10-9-|------10~~~----------9-7-|-7/9~~~~~~~~~~--------------|
B|-12--------------------|-10----------------------|----------------------------|
G|-----------------------|-------------------------|----------------------------|
D|-----------------------|-------------------------|----------------------------|
A|-----------------------|-------------------------|----------------------------|
E|-----------------------|-------------------------|----------------------------|


Verse 3:
A chord diagramG#G#
Gold and diamonds cast a spell
D#m/F#
It's not for me, I know it well
A chord diagramF#F#
The riches that I seek are waiting
A chord diagramBMaj7Bmaj7        Fm7b5/B
On the other side
A chord diagramBMaj7Bmaj7                   Fm7b5/B
There's more than I can measure
Ebsus4/Bb               A chord diagramEb/BbEb/Bb           A chord diagramBbsus4Bbsus4      A chord diagramBb majorBb
In the treasures of the love that I can find


Pre Chorus:
A chord diagramBMaj7Bmaj7                  C#/B
And though it's always been with me
A chord diagramBMaj7Bmaj7                A chord diagramC#C#              A chord diagramEb MajorEb
I must tear down the wall and let it be


Chorus:
A chord diagramFm7Fm7    A chord diagramEb/GEb/G
All I am
Ebm/Gb             A chord diagramE MajorE             A chord diagramBB
And all that I was ever meant to be
   A chord diagramC#C#   A chord diagramEb MajorEb
In harmony

A chord diagramFm7Fm7     A chord diagramEb/GEb/G
Shining true
Ebm/Gb              A chord diagramE MajorE               A chord diagramBB
And smiling back at all who wait to cross
      A chord diagramC#C#    A chord diagramEb MajorEb
There is no loss


Outro:
A chord diagramCsus4Csus4      A chord diagramC majorC
Ohhh

  A chord diagramFF                  G/F               A chord diagramC/GC/G                A chord diagramD/F#D/F#              A chord diagramG MajorG
e|------------------|-----------------|------------7--8--|---------7---8---|--10-----------7-10-|
B|------------5--6--|---------5---6---|--8---------------|--10-------------|-------------8------|
G|--5---------------|--7--------------|------------------|-----------------|--------------------|
D|------------------|-----------------|------------------|-----------------|--------------------|
A|------------------|-----------------|------------------|-----------------|--------------------|
E|------------------|-----------------|------------------|-----------------|--------------------|

  A chord diagramE minor 7Em7                    A chord diagramD/F#D/F#                  A chord diagramE minorEm                         A chord diagramA majorA           A chord diagramA/GA/G
e|--10---8---7----------|---------------10-14-|--17---15---14------------|------------14----15---|
B|---------------10--8--|-10---------10-------|------------------17--15--|---17------------------|
G|----------------------|---------------------|--------------------------|-----------------------|
D|----------------------|---------------------|--------------------------|-----------------------|
A|----------------------|---------------------|--------------------------|-----------------------|
E|----------------------|---------------------|--------------------------|-----------------------|

  A chord diagramD MajorD                    E/D                     A chord diagramA/C#A/C#       Bmadd4         A chord diagramA majorA         A chord diagramEm/GEm/G
e|--17---------16--17-|---19---17---16--------|------------------------|---------------14--15--|
B|--------------------|------------------19---|---17-----------15--19--|---17------------------|
G|--------------------|-----------------------|------------------------|-----------------------|
D|--------------------|-----------------------|------------------------|-----------------------|
A|--------------------|-----------------------|------------------------|-----------------------|
E|--------------------|-----------------------|------------------------|-----------------------|

  A chord diagramF#sus4F#7sus4               A chord diagramBB                       A chord diagramE MajorE                  Am6/E
e|--14tr15~~~--12--15-|--14tr15~~~------------|--12-~~~~~--------|-14-16-14-16--17~~----16--14--|
B|--------------------|-----------------12----|------------------|------------------------------|
G|--------------------|-----------------------|------------------|------------------------------|
D|--------------------|-----------------------|------------------|------------------------------|
A|--------------------|-----------------------|------------------|------------------------------|
E|--------------------|-----------------------|------------------|------------------------------|

  A chord diagramE6E6                        Am6/E                         A chord diagramE MajorE             A chord diagramB/D#B/D#
e|-12-14-16-------12--16--|-14-16-14-16--17~~~--16--14--|--16-----------------14---12-14-|
B|------------------------|-----------------------------|------17------------------------|
G|------------------------|-----------------------------|----------16--------------------|
D|------------------------|-----------------------------|--------------------------------|
A|------------------------|-----------------------------|--------------------------------|
E|------------------------|-----------------------------|--------------------------------|

  A chord diagramC# minorC#m               A chord diagramC majorC                           A chord diagramAm6Am6                            A chord diagramE MajorE
e|--12------12--14--12~~~-------|---------14----15----17----|----19-----20-----24*-----------||
B|------14----------------------|---------------------------|--------------------------------||
G|------------------------------|---------------------------|--------------------------------||
D|------------------------------|---------------------------|--------------------------------||
A|------------------------------|---------------------------|--------------------------------||
E|------------------------------|---------------------------|--------------------------------||
                           Slow Down                                       *tremolo

Almost there ...

Sign in to get your own page with links to favourite songs and more. You are just one click away...

Login with Facebook Login with Google