Log in

One click and you are in

Login with Facebook Login with Google

Why sign up and log in

Guitar Tabs Explorer
Miles Kane guitar tabs for Shavambacu

Guitar tabs

Tuning: Standard (E A D G B E)

Difficulty: Novice


verse:

e|-------------------|
B|-------5---------3-|
G|---3---------3-----| x6
D|-5---5-----5---5---|
A|-------------------|
E|-------------------|

e|-----------------------|
B|---------10----------8-|
G|----8-----------8------| x1
D|-10---10-----10---10---|
A|-----------------------|
E|-----------------------|

e|-------------------|
B|-------5---------3-|
G|---3---------3-----| x 7
D|-5---5-----5---5---|
A|-------------------|
E|-------------------|

e|-----------------------|
B|---------10----------8-|
G|----8-----------8------|
D|-10---10-----10---10---| x 1
A|-----------------------|
E|-----------------------|

e|-------------------|
B|-------5---------3-|
G|---3---------3-----| x 7
D|-5---5-----5---5---|
A|-------------------|
E|-------------------|

e|-----------------------|
B|---------10----------8-|
G|----8-----------8------|
D|-10---10-----10---10---| x 1
A|-----------------------|
E|-----------------------|

e|-------------------|
B|-------5---------3-|
G|---3---------3-----| x 1
D|-5---5-----5---5---|
A|-------------------|
E|-------------------|

e|-----------------------|
B|---------10----------8-|
G|----8-----------8------|
D|-10---10-----10---10---| x 1
A|-----------------------|
E|-----------------------|

Chorus:

e|-6-|
B|-6-|
G|-7-|
D|-8-| x 4 counts of 4
A|-8-|
E|-6-|

e|-8--|
B|-8--|
G|-8--|
D|-8--| x 2 counts of 4
A|-10-|
E|-8--|

e|-6-|
B|-7-|
G|-8-|
D|-8-| x 2 counts of 4
A|-6-|
E|-x-|

e|-6-|
B|-6-|
G|-7-|
D|-8-| x 4 counts of 4
A|-8-|
E|-6-|

e|-8--|
B|-8--|
G|-8--|
D|-8--| x 2 counts of 4
A|-10-|
E|-8--|

e|-6-|
B|-7-|
G|-8-|
D|-8-| x 2 counts of 4
A|-6-|
E|-x-|


verse 2:

e|-------------------|
B|-------5---------3-|
G|---3---------3-----| x6
D|-5---5-----5---5---|
A|-------------------|
E|-------------------|

e|-----------------------|
B|---------10----------8-|
G|----8-----------8------| x1
D|-10---10-----10---10---|
A|-----------------------|
E|-----------------------|

e|-------------------|
B|-------5---------3-|
G|---3---------3-----| x 7
D|-5---5-----5---5---|
A|-------------------|
E|-------------------|

e|-----------------------|
B|---------10----------8-|
G|----8-----------8------|
D|-10---10-----10---10---| x 1
A|-----------------------|
E|-----------------------|

e|-------------------|
B|-------5---------3-|
G|---3---------3-----| x 7
D|-5---5-----5---5---|
A|-------------------|
E|-------------------|

e|-----------------------|
B|---------10----------8-|
G|----8-----------8------|
D|-10---10-----10---10---| x 1
A|-----------------------|
E|-----------------------|

e|-------------------|
B|-------5---------3-|
G|---3---------3-----| x 1
D|-5---5-----5---5---|
A|-------------------|
E|-------------------|

e|-----------------------|
B|---------10----------8-|
G|----8-----------8------|
D|-10---10-----10---10---| x 1
A|-----------------------|
E|-----------------------|


Chorus 2\outro:

e|-6-|
B|-6-|
G|-7-|
D|-8-| x 4 counts of 4
A|-8-|
E|-6-|

e|-8--|
B|-8--|
G|-8--|
D|-8--| x 2 counts of 4
A|-10-|
E|-8--|

e|-6-|
B|-7-|
G|-8-|
D|-8-| x 2 counts of 4
A|-6-|
E|-x-|

e|-6-|
B|-6-|
G|-7-|
D|-8-| x 4 counts of 4
A|-8-|
E|-6-|

e|-8--|
B|-8--|
G|-8--|
D|-8--| x 2 counts of 4
A|-10-|
E|-8--|

e|-6-|
B|-7-|
G|-8-|
D|-8-| x 2 counts of 4
A|-6-|
E|-x-|

Other versions of Shavambacu

ShavambacuChords

↓ Add and view comments below ↓

What do you think about this song and these tabs?

Add your comments, questions, rant or a thumbs up below.

Almost there ...

Sign in to get your own page with links to favourite songs and more. You are just one click away...

Login with Facebook Login with Google