Log in

One click and you are in

Login with Facebook Login with Google

Why sign up and log in

Guitar Tabs Explorer
Kamauu bass tabs for Mango

Bass tabs

Tuning: Standard (E A D G)


Intro:

G|------------------------------7-7---5-7-------------------------5-h6-h7---6p5----|
D|--------------8-8-----------7-----7-----------5-5--------------------------------|
A|---13\1-----8-----8-------5-----------------5-----5------------------------------|
E|----------6---------6---------------------3---------2-3-----5--------------------|

Verse 1:

G|----------------------7-7---5-7--------------------------------10-\7--7\5-------|
D|------8-8-----------7-----7-----------5-5----------------7-6-7------------------|
A|----8-----8-------5-----------------5-----5-------------------------------------|
E|--6---------6---------------------3---------2-3---3-4-5-------------------------|

G|----------------------7-7---5-7------------------------5-h6-h7---6p5------------|
D|------8-8-----------7-----7-----------5-5---------------------------------------|
A|----8-----8-------5-----------------5-----5-------------------------------------|
E|--6---------5-6-------------------3---------2-3-----5---------------------------|

G|----------------------7-7---5-7--------------------------------10-\7--7\5-------|
D|------8-8-----------7-----7-----------5-5----------------7-6-7------------------|
A|----8-----8-------5-----------------5-----5-------------------------------------|
E|--6---------5-6-------------------3---------2-3---3-4-5-------------------------|


Chorus:

G|----------------------7-7---5-7p-----------------------------5-h6-h7---5--------|
D|------8-8-----------7-----7------6p5--0-----5-5---------------------------------|
A|----8-----8-------5-----------------------5-----5-------------------------------|
E|--6---------6---------------------------3---------2-3-----5---------------------|

G|----------------------7-7---5-7--------------------------------10-\7--7\5-------|
D|------8-8-----------7-----7-----------5-5----------------7-6-7------------------|
A|----8-----8-------5-----------------5-----5-------------------------------------|
E|--6---------5-6-------------------3---------2-3---3-4-5-------------------------|


Verse 2:

G|----------------------7-7---5-7--7\5------------------------5-h6-h7---6p5-------|
D|------8-8-----------7-----7---------------5-5-----------------------------------|
A|----8-----8-------5---------------------5-----5---------------------------------|
E|--6---------6-------------------------3---------2-3----4h5----------------------|

G|----------------------7-7---5-7---------------------------------7\5--10\7-------|
D|------8-8-----------7-----7-----------5-5----------------7-6-7------------------|
A|----8-----8-------5-----------------5-----5-------------------------------------|
E|--6---------5-6-------------------3---------2-3---3-4-5-------------------------|

G|----------------------7-7---5-7\5------------------------------5-6-7---6p5------|
D|------8-8-----------7-----7-------7\5-------5-5---------------------------------|
A|----8-----8-------5-----------------------5-----5-------------------------------|
E|--6---------5-6-------------------------3---------2-3----4-5--------------------|

G|----------------------7-7---5-7------------------------------------10\7--12\10--|
D|------8-8-----------7-----7-----------5-5-------5-----------7-6-7---------------|
A|----8-----8-------5-----------------5-----5-------------------------------------|
E|--6---------5-6-------------------3---------2-3-----3-4--5----------------------|


Chorus:

G|----------------------7-7---5-7p-------------------------------5-6-7---6p5------|
D|------8-8-----------7-----7------6p5-------5-5----------------------------------|
A|----8-----8-------5----------------------5-----5--------------------------------|
E|--6---------6--------------------------3---------2-3----3-4-5-------------------|

G|----------------------7-7---5-7-----------------------------------10-\7--12\10--|
D|------8-8-----------7-----7------3h5------5-5---------5-----7-6-7---------------|
A|----8-----8-------5---------------------5-----5---------------------------------|
E|--6---------5-6-----------------------3---------2-3------5----------------------|


Bridge:

G|-----------------------7-7---5-7------------------------------------7--5--------|
D|------8-8------------7-----7------------5-5---------5-------7-6-7---------------|
A|----8-----8--------5------------------5-----5-----------------------------------|
E|--6---------5-6---------------------3---------2-3-----4-5-----------------------|

G|-----------------------7-7---5-7------------------------------------10--7--5/7--|
D|------8-8------------7-----7------5-0-----5-5----------------7-6-7--------------|
A|----8-----8--------5--------------------5-----5---------------------------------|
E|--6---------5-6-----------------------3---------2-3-----4-5---------------------|

G|--------------------------------------------------------------------------------|
D|-------------12\1-0---0-0-------------------------------------------------------|
A|---------------------------0----------------------5--3--------------------------|
E|--6---6-6---------------------3---3-3---1-3-5-----------------------------------|


Chorus:

G|-----------------------7-7---5-7--------------------------------5-h6-h7---6p5---|
D|------8-8------------7-----7--------3-5-----5-5---------5-----------------------|
A|----8-----8--------5----------------------5-----5-------------------------------|
E|--6---------5-6-------------------------3---------2-3------4-5------------------|

G|-----------------------7-7---5-7-------------------------------10--12/14--12\10-|
D|------8-8------------7-----7-----------5-5---------------7-6-7------------------|
A|----8-----8--------5-----------------5-----5------------------------------------|
E|--6---------5-6--------------------3---------2-3---3-4-5------------------------|


Outro:

G|-----------------------7-7---5-7---------------------------5-6-7---6p5----------|
D|------8-8------------7-----7-----------5-5--------------------------------------|
A|----8-----8--------5-----------------5-----5------------------------------------|
E|--6---------5-6--------------------3---------2-3----3-4-5-----------------------|

G|-----------------------7-7---5-7--------------------------------------7-5--10\7-|
D|------8-8------------7-----7-----------------5-5--------5-------7-6-7-----------|
A|----8-----8--------5--------------13\1-----5-----5------------------------------|
E|--6---------6\1--------------------------3---------2-3----1---5-----------------|

G|---------------------------7-7---5-7p5------------------------------5-6-7---6p5-|
D|------8-8--------12\1----7-----7-------6p5-----5-5-------5----------------------|
A|----8-----8------------5---------------------5-----5----------------------------|
E|--6---------5-6----------------------------3---------2-3-----3--4-5-------------|

G|-----------------------7-7---5-7------------------------------------------------|
D|------8-8------------7-----7----------------------------------------------------|
A|----8-----8--------5------------------------------------------------------------|
E|--6---------5-6-----------------------------------------------------------------|


************************************

| h  Hammer-on
| p  Pull-off
| /  Slide up
| \  Slide down

************************************

Almost there ...

Sign in to get your own page with links to favourite songs and more. You are just one click away...

Login with Facebook Login with Google