Log in

One click and you are in

Login with Facebook Login with Google

Why sign up and log in

Guitar Tabs Explorer
Kaleo bass tabs for Way down we go

Bass tabs

Tuning: Standard


[Intro]

G|---------|
D|---------|
A|---------| x2
E|-6—4—2—6-|

[Verse A]

(And way down we go…)

G|---------------------------------|
D|---------------------------------|
A|-----------------6-6-6-6-6-6-6-6—| x3
E|-6-6-0-0—2-0-2-0-----------------|


[Verse B]

G|----------------------|
D|----------------------|
A|-----------------6~---|
E|-6-6-0-0—2-0-2-0------|


[Verse A]

(You let your feet run wild…)

G|---------------------------------|
D|---------------------------------|
A|-----------------6-6-6-6-6-6-6-6—| x7
E|-6-6-0-0—2-0-2-0-----------------|


[Verse B]

G|-----------------------|
D|-----------------------|
A|-----------------6-6---|
E|-6-6-0-0—2-0-2-0-------|


[Verse A]

(And way down we go...)

G|---------------------------------|
D|---------------------------------|
A|-----------------6-6-6-6-6-6-6-6—| x3
E|-6-6-0-0—2-0-2-0-----------------|


[Verse B]

G|-----------------------|
D|-----------------------|
A|-----------------6-6---|
E|-6-6-0-0—2-0-2-0-------|


[1st Solo]

G|---------|
D|---------|
A|-6—6—6—6—| x4
E|---------|


[Bridge/2nd Solo]

(Play with boost or distortion in the solo section)

G|----------------------------------|
D|-----6-8------------6-8-----------|
A|-6-8-----6-8----6-8-----6-8-------| x20

Almost there ...

Sign in to get your own page with links to favourite songs and more. You are just one click away...

Login with Facebook Login with Google