Log in

One click and you are in

Login with Facebook Login with Google

Why sign up and log in

Guitar Tabs Explorer
Kaleo guitar tabs for I want more

Guitar tabs with lyrics

  • Capo on 1st
Tuning: Standard (E A D G B E)

--------------------------------------------
             I Want More - Kaleo
--------------------------------------------

    Album: ?
    Release: 2020

        Tuning: Standard (Capo 1)
        Tabbed by: Xplisit

    The song uses Travis picking, but it's a bit
    different, because JJ has uses different technique,
    as he doesn't carry over the thumb.
    As I learned it, every second note (bass and A chord diagramG MajorG
    string) should be played by thumb, but JJ uses
    thumb for the bass and index for the A chord diagramG MajorG string
    (as seen on I Want More RÚV)

    This only goes for the verses, intro is played
    with a thumb, index and middle finger.



Intro:
                      *Whistling part*
e|--------------|-------------|--------------|---------------|
B|--------------|-------------|--------------|---------------|
G|------0-----0-|-----0-----0-|------0-----0-|-----0-----0---|
D|----0-----0---|---0-----0---|----0-----0---|---0-----0-----|
A|--3-----------|-2-----------|--0-----------|---------------|
E|--------------|-------------|--------------|-3-------------|

Verse 1: (x3)

    A chord diagramG MajorG                            A chord diagramG/BG/B
e|--3-------3---|-3-------3---|--3-------3---|-3-------3-----|
B|------0-------|-----0-------|------0-------|-----0---------|
G|----0---0---0-|---0---0---0-|----0---0---0-|---0---0---0---|
D|--------------|-------------|--------------|---------------|
A|--------------|-------------|--2-----------|---------------|
E|--3-----------|-------------|--------------|---------------|

    A chord diagramC majorC                            A chord diagramD7D7
e|--3-------3---|-3-------3---|--3-------3---|-3p2-------2h3-|
B|------1-------|-----0-------|------1-------|-------1-------|
G|----0---0---0-|---0---0---0-|----2---2---2-|-----2---2-----|
D|--------------|-------------|--0-----------|---------------|
A|--3-----------|-------------|--------------|---------------|
E|--------------|-------------|--------------|---------------|


Chorus: (x3)

    A chord diagramC majorC             A chord diagramG MajorG             A chord diagramD MajorD               A chord diagramE minorEm
e|--3-------3---|-3-------3---|-3p2-------2h3|--3-------3----|
B|------1-------|-----0-------|-------3------|------0--------|
G|----0---0---0-|---0---0---0-|-----2---2----|----0---0---0--|
D|--------------|-------------|-0------------|--2------------|
A|--3-----------|-------------|--------------|---------------|
E|--------------|-3-----------|--------------|---------------|

The fourth time:

    A chord diagramC majorC             A chord diagramG MajorG             A chord diagramD MajorD
e|--3-------3---|-3-------3---|-3p2-------2--|--2-------2h3--|
B|------1-------|-----0-------|-------3------|------3--------|
G|----0---0---0-|---0---0---0-|-----2---2---2|----2---2------|
D|--------------|-------------|-0------------|--0------------|
A|--3-----------|-------------|--------------|---------------|
E|--------------|-3-----------|--------------|---------------|


Verse 2:

    A chord diagramG MajorG                            A chord diagramG/BG/B
e|--3-------3---|-3-------3---|--3-------3---|-3-------3-----|
B|------0-------|-----0-------|------0-------|-----0---------|
G|----0---0---0-|---0---0---0-|----0---0---0-|---0---0---0---|
D|--------------|-------------|--------------|---------------|
A|--------------|-------------|--2-----------|---------------|
E|--3-----------|-------------|--------------|---------------|

    A chord diagramC majorC                            A chord diagramD7D7
e|--3-------3---|-3-------3---|--3-------3---|-3p2-------2h3-|
B|------1-------|-----0-------|------1-------|-------1-------|
G|----0---0---0-|---0---0---0-|----2---2---2-|-----2---2-----|
D|--------------|-------------|--0-----------|---------------|
A|--3-----------|-------------|--------------|---------------|
E|--------------|-------------|--------------|---------------|


Chorus 2: (x3)

    A chord diagramC majorC             A chord diagramG MajorG             A chord diagramD MajorD              A chord diagramE minorEm
e|--3-----------|-3-----------|-2------------|--3------------|
B|--1-----------|-0-----------|-3------------|--0------------|
G|--0-----------|-0-----------|-2------------|--0------------|
D|--2-----------|-0-----------|-0------------|--2------------|
A|--3-----------|-2-----------|--------------|--2------------|
E|--------------|-3-----------|--------------|--0------------|

The fourth time:

    A chord diagramC majorC             A chord diagramG MajorG             A chord diagramD MajorD
e|--3-----------|-3-----------|-2------------|---------------|
B|--1-----------|-0-----------|-3------------|---------------|
G|--0-----------|-0-----------|-2------------|---------------|
D|--2-----------|-0-----------|-0------------|---------------|
A|--3-----------|-2-----------|--------------|---------------|
E|--------------|-3-----------|--------------|---------------|


Interlude:

                      *Whistling part*
e|--------------|-------------|--------------|---------------|
B|--------------|-------------|--------------|---------------|
G|------0-----0-|-----0-----0-|------0-----0-|-----0-----0---|
D|----0-----0---|---0-----0---|----0-----0---|---0-----0-----|
A|--3-----------|-2-----------|--0-----------|---------------|
E|--------------|-------------|--------------|-3-------------|


Solo: x1 + x2 in the background

Until I get my hands on a banjo, I can't transcribe the solo
the right way, but here's a guitar version of it.

The picking behind is the same as throughout the verses.


e|----5/7--7---10--7--5-------|----5/7--7---10--7--5----------|
B|-----------------------8----|-----------------------8-------|
G|----------------------------|-------------------------------|
D|----------------------------|-------------------------------|
A|----------------------------|-------------------------------|
E|----------------------------|-------------------------------|

e|----5/7--7---10--7--5-------|----5/7---10h12--10--7--5------|
B|-----------------------8----|---------------------------8---|
G|----------------------------|-------------------------------|
D|----------------------------|-------------------------------|
A|----------------------------|-------------------------------|
E|----------------------------|-------------------------------|


Verse 3: x1 behind the solo + x2 for the verse

    A chord diagramG MajorG                            A chord diagramG/BG/B
e|--3-------3---|-3-------3---|--3-------3---|-3-------3-----|
B|------0-------|-----0-------|------0-------|-----0---------|
G|----0---0---0-|---0---0---0-|----0---0---0-|---0---0---0---|
D|--------------|-------------|--------------|---------------|
A|--------------|-------------|--2-----------|---------------|
E|--3-----------|-------------|--------------|---------------|

    A chord diagramC majorC                            A chord diagramD7D7
e|--3-------3---|-3-------3---|--3-------3---|-3p2-------2h3-|
B|------1-------|-----0-------|------1-------|-------1-------|
G|----0---0---0-|---0---0---0-|----2---2---2-|-----2---2-----|
D|--------------|-------------|--0-----------|---------------|
A|--3-----------|-------------|--------------|---------------|
E|--------------|-------------|--------------|---------------|


Bridge: (x3)

Banjo takes over, so it's best to strum, but you can also
use the same picking pattern as before.

   A chord diagramBB              A chord diagramE minorEm            A chord diagramC majorC              A chord diagramG MajorG
e|-2-2-2--2-2-2-|-0-0-0--0-0-0|-0-0-0--0-0-0-|-3-3-3--3-3-3--|
B|-4-4-4--4-4-4-|-0-0-0--0-0-0|-1-1-1--1-1-1-|-0-0-0--0-0-0--|
G|-4-4-4--4-4-4-|-0-0-0--0-0-0|-0-0-0--0-0-0-|-0-0-0--0-0-0--|
D|-4-4-4--4-4-4-|-2-2-2--2-2-2|-2-2-2--2-2-2-|-0-0-0--0-0-0--|
A|-2------------|-------------|-3------------|---------------|
E|--------------|-0-----------|--------------|-3-------------|

The fourth time:

   A chord diagramAm7Am7                          A chord diagramD MajorD
e|-3-3-3--3-3-3-|-3-3-3--3-3-3|-3-3-3--3-3-3-|-3-3-3--3-3-3-2|
B|-1-1-1--1-1-1-|-1-1-1--1-1-1|-3-3-3--3-3-3-|-3-3-3--3-3-3-3|
G|-0-0-0--0-0-0-|-0-0-0--0-0-0|-2-2-2--2-2-2-|-2-2-2--2-2-2-2|
D|-2-2-2--2-2-2-|-2-2-2--2-2-2|-0------------|-0-------------|
A|-0------------|-0-----------|--------------|---------------|
E|--------------|-------------|--------------|---------------|


Chorus 3: (x3)

   A chord diagramC majorC              A chord diagramG MajorG             A chord diagramD MajorD              A chord diagramE minorEm
e|-3-3-3--3-3-3-|-3-3-3--3-3-3|-3p2-2--2-2h3-|-3-3-3--3-3-3--|
B|-1-1-1--1-1-1-|-0-0-0--0-0-0|-3-3-3--3-3-3-|-0-0-0--0-0-0--|
G|-0-0-0--0-0-0-|-0-0-0--0-0-0|-2-2-2--2-2-2-|-0-0-0--0-0-0--|
D|-2-2-2--2-2-2-|-0-0-0--0-0-0|-0------------|-2-2-2--2-2-2--|
A|-3------------|-2-2-2--2-2-2|--------------|-2-------------|
E|--------------|-3-----------|--------------|-0-------------|

The fourth time:

   A chord diagramC majorC              A chord diagramG MajorG             A chord diagramD MajorD
e|-3-3-3--3-3-3-|-3-3-3--3-3-3|-3p2-2--2-2-2-|-2-2-2--2-2-2--|
B|-1-1-1--1-1-1-|-0-0-0--0-0-0|-3-3-3--3-3-3-|-3-3-3--3-3-3--|
G|-0-0-0--0-0-0-|-0-0-0--0-0-0|-2-2-2--2-2-2-|-2-2-2--2-2-2--|
D|-2-2-2--2-2-2-|-0-0-0--0-0-0|-0------------|-0-------------|
A|-3------------|-2-2-2--2-2-2|--------------|---------------|
E|--------------|-3-----------|--------------|---------------|


Outro:

    A chord diagramG MajorG                            A chord diagramG/BG/B
e|--3-------3---|-3-------3---|--3-------3---|-3-------3-----|
B|------0-------|-----0-------|------0-------|-----0---------|
G|----0---0---0-|---0---0---0-|----0---0---0-|---0---0---0---|
D|--------------|-------------|--------------|---------------|
A|--------------|-------------|--2-----------|---------------|
E|--3-----------|-------------|--------------|---------------|

    A chord diagramC majorC                            A chord diagramD7D7
e|--3-------3---|-3-------3---|--3-------3---|-3p2-------2h3-|
B|------1-------|-----0-------|------1-------|-------1-------|
G|----0---0---0-|---0---0---0-|----2---2---2-|-----2---2-----|
D|--------------|-------------|--0-----------|---------------|
A|--3-----------|-------------|--------------|---------------|
E|--------------|-------------|--------------|---------------|

    A chord diagramG MajorG
e|--------------|
B|--------------|
G|--0-----------|
D|--0-----------|
A|--0-----------|
E|--3-----------|


************************************

| h  Hammer-on
| p  Pull-off
| /  Slide up

************************************

Other versions of I Want More

I want moreChords

Almost there ...

Sign in to get your own page with links to favourite songs and more. You are just one click away...

Login with Facebook Login with Google