Log in

One click and you are in

Login with Facebook Login with Google

Why sign up and log in

Guitar Tabs Explorer
Kaleidoscope bass tabs for The sky children

Bass tabs

G|----------------5-------------------------------|
D|------------------------------------------------|
A|3-----------------------------------------------|
E|------------------------------------------------|

G|--------------------------------------------------|
D|5---5-7-5-------5---5-7-5-------5-----------------|
A|------------7---------------7-----------5h7---5---|
E|--------------------------------------------------|

G|----------------5---------------4-------------------------------|
D|----------------------------------------------------------------|
A|3---------------------------------------------------------------|
E|----------------------------------------------------------------|

0:15

G|----------------------------------------------------------------|.
D|7-----------------------7-------5-----------------------5-------|.
A|----------------------------------------------------------------|.
E|----------------------------------------------------------------|.
                                                                   .
G|----------------------------------------------------------------|.
D|3-----------------------3---------------------------------------|.
A|--------------------------------3-----------------------3-------|.
E|----------------------------------------------------------------|.
                                                                   . x2
G|----------------------------------------------------------------|.
D|3-----------------------3-------7-----------------------7-------|.
A|----------------------------------------------------------------|.
E|----------------------------------------------------------------|.
                                                                   .
G|----------------------------------------------------------------|.
D|5-----------------------5-------3-----------------------3-------|.
A|----------------------------------------------------------------|.
E|----------------------------------------------------------------|.
                                                                   .
G|----------------------------------------------------------------|.
D|--------------------------------3-----------------------3-------|.
A|3-----------------------3---------------------------------------|.
E|----------------------------------------------------------------|.

0:59

G|----------------------------------------------------------------|
D|7-------------------------------5-----------------------5-------|
A|----------------------------------------------------------------|
E|----------------------------------------------------------------|

G|----------------------------------------------------------------|
D|3-----------------------3---------------------------------------|
A|--------------------------------3-----------------------3-------|
E|----------------------------------------------------------------|

G|--------------------------------|
D|3-------------------------------|
A|--------------------------------|
E|--------------------------------|

1:10

G|----------------5-------------------------------|
D|------------------------------------------------|
A|3-----------------------------------------------|
E|------------------------------------------------|

G|------------------------------------------------|
D|5---5-7-5-------5---5-7-5-------5---------------|
A|------------7---------------7---------5-7---5---|
E|------------------------------------------------|

G|----------------5---------------4-------------------------------|
D|----------------------------------------------------------------|
A|3---------------------------------------------------------------|
E|----------------------------------------------------------------|

1:21

G|----------------------------------------------------------------|
D|7-----------------------7-------5-----------------------5-------|
A|----------------------------------------------------------------|
E|----------------------------------------------------------------|

G|----------------------------------------------------------------|
D|3-----------------------3---------------------------------------|
A|--------------------------------3-----------------------3-------|
E|----------------------------------------------------------------|

G|----------------------------------------------------------------|
D|3-----------------------3-------7-----------------------7-------|
A|----------------------------------------------------------------|
E|----------------------------------------------------------------|

G|----------------------------------------------------------------|
D|5-----------------------5-------3-----------------------3-------|
A|----------------------------------------------------------------|
E|----------------------------------------------------------------|

G|----------------------------------------------------------------|
D|--------------------------------3-----------------------3-------|
A|3-----------------------3---------------------------------------|
E|----------------------------------------------------------------|

1:43

G|----------------------------------------------------------------|
D|7-----------------------7-------5-----------------------5-------|
A|----------------------------------------------------------------|
E|----------------------------------------------------------------|

G|----------------------------------------------------------------|
D|3-----------------------3---------------------------------------|
A|--------------------------------3-----------------------3-------|
E|----------------------------------------------------------------|

G|----------------------------------------------------------------|
D|3-----------------------3-------7-----------------------7-------|
A|----------------------------------------------------------------|
E|----------------------------------------------------------------|

G|----------------------------------------------------------------|
D|5-----------------------5-------3-----------------------3-------|
A|----------------------------------------------------------------|
E|----------------------------------------------------------------|

G|----------------------------------------------------------------|
D|--------------------------------3-------------------------------|
A|3-----------------------3---------------------------------------|
E|----------------------------------------------------------------|

2:05

G|----------------------------------------------------------------|
D|7-----------------------7-------5-----------------------5-------|
A|----------------------------------------------------------------|
E|----------------------------------------------------------------|

G|----------------------------------------------------------------|
D|3-----------------------3---------------------------------------|
A|--------------------------------3-----------------------3-------|
E|----------------------------------------------------------------|

G|--------------------------------|
D|3-------------------------------|
A|--------------------------------|
E|--------------------------------|

2:16

G|----------------5-------------------------------|
D|------------------------------------------------|
A|3-----------------------------------------------|
E|------------------------------------------------|

G|--------------------------------------------------|
D|5---5-7-5-------5---5-7-5-------5-----------------|
A|------------7---------------7-----------5h7---5---|
E|--------------------------------------------------|

G|----------------5---------------4-------------------------------|
D|----------------------------------------------------------------|
A|3---------------------------------------------------------------|
E|----------------------------------------------------------------|

2:27

G|----------------------------------------------------------------|
D|7-----------------------7-------5-----------------------5-------|
A|----------------------------------------------------------------|
E|----------------------------------------------------------------|

G|----------------------------------------------------------------|
D|3---------------------------------------------------------------|
A|--------------------------------3-----------------------3-------|
E|----------------------------------------------------------------|

G|----------------------------------------------------------------|
D|3-----------------------3-------7-----------------------7-------|
A|----------------------------------------------------------------|
E|----------------------------------------------------------------|

G|----------------------------------------------------------------|
D|5-----------------------5-------3-----------------------3-------|
A|----------------------------------------------------------------|
E|----------------------------------------------------------------|

G|----------------------------------------------------------------|
D|--------------------------------3-----------------------3-------|
A|3-----------------------3---------------------------------------|
E|----------------------------------------------------------------|

2:49

G|----------------------------------------------------------------|
D|7-----------------------7-------5-----------------------5-------|
A|----------------------------------------------------------------|
E|----------------------------------------------------------------|

G|----------------------------------------------------------------|
D|3-----------------------3---------------------------------------|
A|--------------------------------3-----------------------3-------|
E|----------------------------------------------------------------|

G|----------------------------------------------------------------|
D|3-------------------------------7-------------------------------|
A|----------------------------------------------------------------|
E|----------------------------------------------------------------|

G|----------------------------------------------------------------|
D|5-----------------------5-------3-----------------------3-------|
A|----------------------------------------------------------------|
E|----------------------------------------------------------------|

G|----------------------------------------------------------------|
D|--------------------------------3-----------------------3-------|
A|3-----------------------3---------------------------------------|
E|----------------------------------------------------------------|

3:11

G|----------------------------------------------------------------|
D|7-----------------------7-------5-----------------------5-------|
A|----------------------------------------------------------------|
E|----------------------------------------------------------------|

G|----------------------------------------------------------------|
D|3-----------------------3---------------------------------------|
A|--------------------------------3-----------------------3-------|
E|----------------------------------------------------------------|

G|--------------------------------|
D|3-------------------------------|
A|--------------------------------|
E|--------------------------------|

3:22

G|----------------5-------------------------------|
D|------------------------------------------------|
A|3-----------------------------------------------|
E|------------------------------------------------|

G|--------------------------------------------------|
D|5---5-7-5-------5---5-7-5-------5-----------------|
A|------------7---------------7-----------5h7---5---|
E|--------------------------------------------------|

G|----------------5---------------4-----------------------4-------|
D|----------------------------------------------------------------|
A|3---------------------------------------------------------------|
E|----------------------------------------------------------------|

3:34

G|----------------------------------------------------------------|
D|7-----------------------7-----------5-------------------5-------|
A|----------------------------------------------------------------|
E|----------------------------------------------------------------|

G|----------------------------------------------------------------|
D|3-----------------------3---------------------------------------|
A|--------------------------------3-----------------------3-------|
E|----------------------------------------------------------------|

G|----------------------------------------------------------------|
D|3-----------------------3-------7-----------------------7-------|
A|----------------------------------------------------------------|
E|----------------------------------------------------------------|

G|----------------------------------------------------------------|
D|5-----------------------5-------3-----------------------3-------|
A|----------------------------------------------------------------|
E|----------------------------------------------------------------|

G|----------------------------------------------------------------|
D|--------------------------------3-----------------------3-------|
A|3-----------------------3---------------------------------------|
E|----------------------------------------------------------------|

3:56

G|----------------------------------------------------------------|
D|7---------------7---------------5-----------------------5-------|
A|----------------------------------------------------------------|
E|----------------------------------------------------------------|

G|----------------------------------------------------------------|
D|3-----------------------3---------------------------------------|
A|--------------------------------3-----------------------3-------|
E|----------------------------------------------------------------|

G|----------------------------------------------------------------|
D|3-----------------------3-------7-----------------------7-------|
A|----------------------------------------------------------------|
E|----------------------------------------------------------------|

G|----------------------------------------------------------------|
D|5-----------------------5-------3-----------------------3-------|
A|----------------------------------------------------------------|
E|----------------------------------------------------------------|

G|----------------------------------------------------------------|
D|--------------------------------3-------------------------------|
A|3-----------------------3---------------------------------------|
E|----------------------------------------------------------------|

4:18

G|----------------------------------------------------------------|
D|7-----------------------7-------5-----------------------5-------|
A|----------------------------------------------------------------|
E|----------------------------------------------------------------|

G|----------------------------------------------------------------|
D|3-----------------------3---------------------------------------|
A|--------------------------------3-----------------------3-------|
E|----------------------------------------------------------------|

G|--------------------------------|
D|3-------------------------------|
A|--------------------------------|
E|--------------------------------|

4:29

G|----------------5-------------------------------|
D|------------------------------------------------|
A|3-----------------------------------------------|
E|------------------------------------------------|

G|--------------------------------------------------|
D|5---5-7-5-------5---5-7-5-------5-----------------|
A|------------7---------------7-----------5h7---5---|
E|--------------------------------------------------|

G|----------------5---------------4-------------------------------|
D|----------------------------------------------------------------|
A|3---------------------------------------------------------------|
E|----------------------------------------------------------------|

4:40

G|----------------------------------------------------------------|.
D|7-----------------------7-------5-----------------------5-------|.
A|----------------------------------------------------------------|.
E|----------------------------------------------------------------|.
                                                                   .
G|----------------------------------------------------------------|.
D|3-----------------------3---------------------------------------|.
A|--------------------------------3-----------------------3-------|.
E|----------------------------------------------------------------|.
                                                                   .
G|----------------------------------------------------------------|.
D|3-----------------------3-------7-----------------------7-------|. x2
A|----------------------------------------------------------------|.
E|----------------------------------------------------------------|.
                                                                   .
G|----------------------------------------------------------------|.
D|5-----------------------5-------3-----------------------3-------|.
A|----------------------------------------------------------------|.
E|----------------------------------------------------------------|.
                                                                   .
G|----------------------------------------------------------------|.
D|--------------------------------3-----------------------3-------|.
A|3-----------------------3---------------------------------------|.
E|----------------------------------------------------------------|.

5:24

G|----------------------------------------------------------------|
D|7-----------------------7-------5-----------------------5-------|
A|----------------------------------------------------------------|
E|----------------------------------------------------------------|

G|----------------------------------------------------------------|
D|3-----------------------3---------------------------------------|
A|--------------------------------3-----------------------3-------|
E|----------------------------------------------------------------|

G|--------------------------------|
D|3-------------------------------|
A|--------------------------------|
E|--------------------------------|

5:35

G|----------------5-------------------------------|
D|------------------------------------------------|
A|3-----------------------------------------------|
E|------------------------------------------------|

G|--------------------------------------------------|
D|5---5-7-5-------5---5-7-5-------5-----------------|
A|------------7---------------7-----------5-7---5---|
E|--------------------------------------------------|

G|----------------5---------------4-------------------------------|
D|----------------------------------------------------------------|
A|3---------------------------------------------------------------|
E|----------------------------------------------------------------|

5:46

G|----------------------------------------------------------------|
D|7-----------------------7-------5-----------------------5-------|
A|----------------------------------------------------------------|
E|----------------------------------------------------------------|

G|----------------------------------------------------------------|
D|3-----------------------3---------------------------------------|
A|--------------------------------3-----------------------3-------|
E|----------------------------------------------------------------|

G|----------------------------------------------------------------|
D|3-----------------------3-------7-----------------------7-------|
A|----------------------------------------------------------------|
E|----------------------------------------------------------------|

G|----------------------------------------------------------------|
D|5-----------------------5-------3-----------------------3-------|
A|----------------------------------------------------------------|
E|----------------------------------------------------------------|

G|----------------------------------------------------------------|
D|--------------------------------3-----------------------3-------|
A|3-----------------------3---------------------------------------|
E|----------------------------------------------------------------|

6:08

G|----------------------------------------------------------------|
D|7-----------------------7-------5-----------------------5-------|
A|----------------------------------------------------------------|
E|----------------------------------------------------------------|

G|----------------------------------------------------------------|
D|3-----------------------3---------------------------------------|
A|--------------------------------3-----------------------3-------|
E|----------------------------------------------------------------|

G|----------------------------------------------------------------|
D|3-------------------------------7-----------------------7-------|
A|----------------------------------------------------------------|
E|----------------------------------------------------------------|

G|----------------------------------------------------------------|
D|5-----------------------5-------3-----------------------3-------|
A|----------------------------------------------------------------|
E|----------------------------------------------------------------|

G|----------------------------------------------------------------|
D|--------------------------------3-------------------------------|
A|3-----------------------3---------------------------------------|
E|----------------------------------------------------------------|

6:30

G|----------------------------------------------------------------|
D|7-----------------------7-------5-----------------------5-------|
A|----------------------------------------------------------------|
E|----------------------------------------------------------------|

G|----------------------------------------------------------------|
D|3-----------------------3---------------------------------------|
A|--------------------------------3-----------------------3-------|
E|----------------------------------------------------------------|

G|--------------------------------|
D|3-------------------------------|
A|--------------------------------|
E|--------------------------------|

6:41

G|----------------5-------------------------------|
D|------------------------------------------------|
A|3-----------------------------------------------|
E|------------------------------------------------|

G|--------------------------------------------------|
D|5---5-7-5-------5---5-7-5-------5-----------------|
A|------------7---------------7-----------5h7---5---|
E|--------------------------------------------------|

G|----------------5---------------4-------------------------------|
D|----------------------------------------------------------------|
A|3---------------------------------------------------------------|
E|----------------------------------------------------------------|

6:52

G|----------------------------------------------------------------|
D|7-----------------------7-------5-----------------------5-------|
A|----------------------------------------------------------------|
E|----------------------------------------------------------------|

G|----------------------------------------------------------------|
D|3-----------------------3---------------------------------------|
A|--------------------------------3-----------------------3-------|
E|----------------------------------------------------------------|

G|----------------------------------------------------------------|
D|3-----------------------3-------7-----------------------7-------|
A|----------------------------------------------------------------|
E|----------------------------------------------------------------|

G|----------------------------------------------------------------|
D|5-----------------------5-------3-----------------------3-------|
A|----------------------------------------------------------------|
E|----------------------------------------------------------------|

G|----------------------------------------------------------------|
D|--------------------------------3-----------------------3-------|
A|3-----------------------3---------------------------------------|
E|----------------------------------------------------------------|

7:14

G|----------------------------------------------------------------|
D|7-----------------------7-------5-----------------------5-------|
A|----------------------------------------------------------------|
E|----------------------------------------------------------------|

G|----------------------------------------------------------------|
D|3-----------------------3---------------------------------------|
A|--------------------------------3-----------------------3-------|
E|----------------------------------------------------------------|

G|----------------------------------------------------------------|
D|3-------------------------------7-----------------------7-------|
A|----------------------------------------------------------------|
E|----------------------------------------------------------------|

G|----------------------------------------------------------------|
D|5-----------------------5-------3-----------------------3-------|
A|----------------------------------------------------------------|
E|----------------------------------------------------------------|

G|----------------------------------------------------------------|
D|--------------------------------3-------------------------------|
A|3-----------------------3---------------------------------------|
E|----------------------------------------------------------------|

7:36

G|----------------------------------------------------------------|
D|----0-7-----------------7-------5-----------------------5-------|
A|----------------------------------------------------------------|
E|----------------------------------------------------------------|

G|----------------------------------------------------------------|
D|3-----------------------3---------------------------------------|
A|--------------------------------3-----------------------3-------|
E|----------------------------------------------------------------|

G|--------------------------------------|
D|3-------------------------------------|
A|----------------------------------3---|
E|--------------------------------------|

Almost there ...

Sign in to get your own page with links to favourite songs and more. You are just one click away...

Login with Facebook Login with Google