Log in

One click and you are in

Login with Facebook Login with Google

Why sign up and log in

Guitar Tabs Explorer
Kakkmaddafakka guitar tabs for Superwoman

Intro

Standard Tuning. The key for this song is A chord diagramG#G# major.

Main Intro/Outro Riff:
Play twice,  second time with the ending.
e|---------------------------------------------------------------|
b|---11--9--8--------9--8------------8--9--8---------------------|
g|-------------------------10-----------------10--8--------------|
d|---------------------------------------------------------------|
a|---------------------------------------------------------------|
E|---------------------------------------------------------------|

                                         Ending

e|-------------------------------------|----8-----------8--------||
b|---11--9--8--------9--8------8-------|-------8--------8--------||
g|-------------------------10----------|----------(8)------------||
d|-------------------------------------|-------------------------||
a|-------------------------------------|-------------------------||
E|-------------------------------------|-------------------------||


************************************

| (n)  Ghost note

↓ Add and view comments below ↓

What do you think about this song and these tabs?

Add your comments, questions, rant or a thumbs up below.

Almost there ...

Sign in to get your own page with links to favourite songs and more. You are just one click away...

Login with Facebook Login with Google