Log in

One click and you are in

Login with Facebook Login with Google

Why sign up and log in

Guitar Tabs Explorer
Kajagoogoo bass tabs for Too shy

Bass tabs

Tuning: EADG


INTRO - 0:00
G|----------|-----------|
D|----------|-----------|
A|----------|-----------|
E|----------|-----------|
INTRO - 0:10
G|----------------------|---------------17~15-|
D|----------------------|---------------------|
A|-12p0-10p0-12p0-10~12-|-0-7p0-5p0-7---15~13-|   EIGHT times
E|----------------------|---------------------|


VERSE - 0:45
G|----------|------------------|---------9---9--|------------9\-|
D|----------|-------------33---|-9-10-99---9--9-|-7-9-7---79----|
A|----------|-345-3-5-5------5-|----------------|---------------|   TWO times
E|-5-3-5----|------------------|----------------|---------------|


PRECHORUS - 1:03
G|-------------|-------------5-|
D|-------------|---------------|
A|-----3-5-7h8-|------3-5-03---|   TWO times
E|-3-5---------|-03-5----------|


CHORUS - 1:12
G|---7--------12-12-|--------6-5----10~--|
D|-----5h6h3--------|-----8------7-------|
A|-5----------------|-0-8----------------|   THREE times
E|------------------|--------------------|

G|---7--------12-12-|----------|
D|-----5h6h3--------|-----8----|
A|-5----------------|-0-8------|
E|------------------|----------|



VERSE - 1:31
G|----------|------------------|---------9---9--|------------9\-|
D|----------|-------------33---|-9-10-99---9--9-|-7-9-7---79----|
A|----------|-345-3-5-5------5-|----------------|---------------|   TWO times
E|-5-3-5----|------------------|----------------|---------------|


PRECHORUS - 1:47
G|-------------|-------------5-|
D|-------------|---------------|
A|-----3-5-7h8-|------3-5-03---|   TWO times
E|-3-5---------|-03-5----------|


CHORUS - 1:56
G|---7--------12-12-|--------6-5----10~--|
D|-----5h6h3--------|-----8------7-------|
A|-5----------------|-0-8----------------|   THREE times
E|------------------|--------------------|

G|---7--------12-12-|----------|---------|
D|-----5h6h3--------|-----8----|---------|
A|-5----------------|-0-8------|---------|
E|------------------|----------|---------|


BRIDGE - 2:17
G|--------------------|-----------------|
D|-77-7-7-7-7-9--7----|-----------------|
A|-----------------10-|-9-77-5-77--5-7--|   EIGHT times
E|--------------------|-----------------|




CHORUS - 2:51
G|---7--------12-12-|--------6-5----10~--|
D|-----5h6h3--------|-----8------7-------|
A|-5----------------|-0-8----------------|   THREE times
E|------------------|--------------------|

G|---7--------12-12-|----------|
D|-----5h6h3--------|-----8----|
A|-5----------------|-0-8------|
E|------------------|----------|

G|---7--------12-12-|--------6-5----10~--|
D|-----5h6h3--------|-----8------7-------|
A|-5----------------|-0-8----------------|   THREE times
E|------------------|--------------------|

G|---7--------12-12-|----------|
D|-----5h6h3--------|-----8----|
A|-5----------------|-0-8------|
E|------------------|----------|

G|---7--------12-12-|--------6-5----10~--|
D|-----5h6h3--------|-----8------7-------|
A|-5----------------|-0-8----------------|   THREE times
E|------------------|--------------------|

G|---7--------12-12-|----------|
D|-----5h6h3--------|-----8----|
A|-5----------------|-0-8------|
E|------------------|----------|



KEY:
\  slide down
h  hammer-on
p  pull-down
~  vibrato

NOTES:
As a typical 80's classic, there is some synth bass in there; more than likely dubbed
with a slap bass synth so it will be hard to get the right sound. This tab is pretty
close but not perfect.

Almost there ...

Sign in to get your own page with links to favourite songs and more. You are just one click away...

Login with Facebook Login with Google