Log in

One click and you are in

Login with Facebook Login with Google

Why sign up and log in

Guitar Tabs Explorer
Kajagoogoo bass tabs for The power to forgive

Bass tabs

Tuning: Standard (E A D G)

-------------------------------------------
     THE POWER TO FORGIVE - KAJAGOOGOO
-------------------------------------------
Intro - 0:06
G|------------|-789---------7-|--7-9-----7-9----|-7--10---19--14-12-|
D|-7-57-9-5---|-----10-7-10---|------10------10-|-------------------|
A|----------7-|---------------|-----------------|-------------------|
E|------------|---------------|-----------------|-------------------|

G|------------|-789---------7-|--7-9-----7-9---7-|-7--10----|-19--14-12---|
D|-7-57-9-5---|-----10-7-10---|------10------10--|----------|-------------|
A|----------7-|---------------|------------------|----------|-------------|
E|------------|---------------|------------------|----------|-------------|


Intro - 0:24
G|-------------|-19---------|
D|-------------|----18h19---|
A|-00-0-00-----|------------|   FOUR times
E|---------77--|------------|


Verse 1 - 0:33
G|-------------|-19---------|
D|-------------|----18h19---|
A|-00-0-00-----|------------|   SEVEN times
E|---------77--|------------|

G|-------------|-19\--|
D|-------------|------|
A|-00-0-00-----|------|
E|---------77--|------|

Pre-Chorus - 0:51
G|-------------------|-------------------|---------------------|-0-2-3-4--444-|
D|-------------------|------3------------|---------------------|--------------|
A|-2-22-0-2------5-5-|-3-33---3--0-0-3-3-|-2-22-0-2------5-2/55|--------------|   TWO times
E|-----------3-3-----|-------------------|-----------3-3-------|--------------|


Chorus - 1:09
G|------------|----------------|------------|----------------|
D|------------|-3-55-5-0-5-33--|------------|-33/9-7-5-3-----|
A|-55-055-33--|----------------|-55-055-33--|------------5-3-|   TWO times
E|------------|----------------|------------|----------------|


Verse 2 - 1:29
G|-------------|-19---------|
D|-------------|----18h19---|
A|-00-0-00-----|------------|   THREE times
E|---------77--|------------|

G|-------------|-19\--|
D|-------------|------|
A|-00-0-00-----|------|
E|---------77--|------|

G|-------------|-19---------|
D|-------------|----18h19---|
A|-00-0-00-----|------------|   THREE times
E|---------77--|------------|

G|-------------|-19\--|
D|-------------|------|
A|-00-0-00-----|------|
E|---------77--|------|


Pre-Chorus - 1:47
G|-------------------|-------------------|---------------------|-0-2-3-4--444-|
D|-------------------|------3------------|---------------------|--------------|
A|-2-22-0-2------5-5-|-3-33---3--0-0-3-3-|-2-22-0-2------5-2/55|--------------|   TWO times
E|-----------3-3-----|-------------------|-----------3-3-------|--------------|


Chorus - 2:04
G|------------|----------------|------------|----------------|
D|------------|-3-55-5-0-5-33--|------------|-33/9-7-5-3-----|
A|-55-055-33--|----------------|-55-055-33--|------------5-3-|   TWO times
E|------------|----------------|------------|----------------|


Bridge - 2:23
G|--------------|----------------|
D|--------------|-----------3--2-|
A|-5-5p0-5--3-5-|-5-5p0-5--------|   EIGHT times
E|--------------|----------1--0--|
   S S   S  S S   S S   S  SP SP


Bridge - 3:00
G|------------|-789---------7-|--7-9-----7-9----|-7--10---19--14-12-|
D|-7-57-9-5---|-----10-7-10---|------10------10-|-------------------|
A|----------7-|---------------|-----------------|-------------------|
E|------------|---------------|-----------------|-------------------|

G|------------|-789---------7-|--7-9-----7-9---7-|-7--10----|
D|-7-57-9-5---|-----10-7-10---|------10------10--|----------|
A|----------7-|---------------|------------------|----------|
E|------------|---------------|------------------|----------|


Chorus - 3:19
G|------------|----------------|------------|----------------|
D|------------|-3-55-5-0-5-33--|------------|-33/9-7-5-3-----|
A|-55-055-33--|----------------|-55-055-33--|------------5-3-|   EIGHT times
E|------------|----------------|------------|----------------|


(Forgiveness, you're the) Key:
/ - Slide up to note
\ - Slide down from note
h - hammer on
p - pull on
S - slap above note
P - pop above note


Note:
This tab is based on the following cover of the songs:
https://www.youtube.com/watch v=iEJRfQyA9Lk

I'm not sure if this or the cover is 100% (especially in the verses), but they make for a good place holder.

↓ Add and view comments below ↓

What do you think about this song and these tabs?

Add your comments, questions, rant or a thumbs up below.

Almost there ...

Sign in to get your own page with links to favourite songs and more. You are just one click away...

Login with Facebook Login with Google