Log in

One click and you are in

Login with Facebook Login with Google

Why sign up and log in

Guitar Tabs Explorer
Kajagoogoo bass tabs for Smile

Bass tabs

Tuning: Standard tuning


Tabbed by: bassm99
E-mail: alanmatthews1966@yahoo.co.uk
Tuning: E, A, D, G

Bass Starts 0:36


Chorus: (Play Twice)

G|--------------------------------------------------------------------------|
D|--------------------------------------------------------------------------|
A|--------444444-(x3)--3-33--555555-(x1)------------------------------------|
E|--2-22--------------------------------------------------------------------|


Verse: (Play Twice)

G|--------------------------------------------------------------------------|
D|--------------------------------------------------------------------------|
A|--------444444-(x3)--3-33--555555-(x1)------------------------------------|
E|--2-22--------------------------------------------------------------------|

Repeat Chorus:

Repeat Verse:

Repeat Chorus:


Bridge:

G|--------------------------------------------------------------------------|
D|--------------------------------------------------------------------------|
A|--------------------------------------------------------------------------|
E|--3-3-3--7-7-7--5-5-5--7-7-7--3-3-3--7-7-7--0-0-0--3-5-7------------------|

G|--------------------------------------------------------------------------|
D|--------------------------------------------------------------------------|
A|--------------------------------------------------------------------------|
E|--3-3-3--7-7-7--5-5-5--7-7-7--3-3-3--7-7-7--00000000----------------------|

G|--------------------------------------------------------------------------|
D|--------------------------------------------------------------------------|
A|--------------------------------------------------------------------------|
E|--3-3-3--7-7-7--5-5-5--7-7-7--3-3-3--7-7-7--0-0-0--3-5-7------------------|

G|--------------------------------------------------------------------------|
D|--------------------------------------------------------------------------|
A|--------------------------------------------------------------------------|
E|--3-3-3--7-7-7--5-5-5--7-7-7--3-3-3--7-7-7--------------------------------|

Repeat Chorus:

Repeat Verse:

No Bass: (2:58 - 3:14)

Repeat Chorus (Play 4 Times)

Bass Stops: (3:46)

Smile bass tab

Kajagoogoo bass tabs for Smile "Smile" from the album "Gone To The Moon" (2008).

Written by Kajagoogoo.

Almost there ...

Sign in to get your own page with links to favourite songs and more. You are just one click away...

Login with Facebook Login with Google