Log in

One click and you are in

Login with Facebook Login with Google

Why sign up and log in

Guitar Tabs Explorer
Kajagoogoo bass tabs for Rocket boy

Bass tabs

Tuning: 0



Intro: (Play Twice)

G|--------------------------------------------------------------------------|
D|--------------------------------------------------------------------------|
A|--2-0---0---------------2-0---0-------------------------------------------|
E|------2---10--8-10-5--------2---10--8-10-10-5-----------------------------|
Verse: (Play Twice)

G|--------------------------------------------------------------------------|
D|--------------------------------------------------------------------------|
A|--------------------------------------------------------------------------|
E|--7-7-7--0-0-0--5-(x3)--33333333-55555555---------------------------------|


Chorus: (Play Twice)

G|--------------------------------------------------------------------------|
D|--------------------------------------------------------------------------|
A|--------------------------------------------------------------------------|
E|--7-7-7--0-0-0--5-(x3)--33333333-55555555---------------------------------|


Bridge:

G|--------------------------------------------------------------------------|
D|--------------------------------------------------------------------------|
A|--------------------------------------------------------------------------|
E|--7777-0000-33333333-(x3)--00000000-00000000-(x1)-------------------------|

Repeat Verse:

Repeat Chorus:

Bridge:

G|--------------------------------------------------------------------------|
D|--------------------------------------------------------------------------|
A|--------------------------------------------------------------------------|
E|--7777-0000-33333333-(x3)--00000000-00000000-(x1)-------------------------|

G|--------------------------------------------------------------------------|
D|--------------------------------------------------------------------------|
A|-------5555--------------------55-77-88-----------------------------------|
E|--7777------3333-0000-(x3)--77----------3333-0000-(x1)--------------------|

No Bass: (2:33 - 2:40)

Guitar Solo: (Play 4 Times)

G|--------------------------------------------------------------------------|
D|--------------------------------------------------------------------------|
A|----7-9-10-10-10-10-------------------------------------------------------|
E|--9-----------------5555-2222---------------------------------------------|

Repeat Chorus:


Bridge:

G|--------------------------------------------------------------------------|
D|--------------------------------------------------------------------------|
A|--------------------------------------------------------------------------|
E|--7777-0000-33333333-(x3)--00000000-00000000-(x1)-------------------------|

G|--------------------------------------------------------------------------|
D|--------------------------------------------------------------------------|
A|-------5555--------------------55-77-88-----------------------------------|
E|--7777------3333-0000-(x3)--77----------3333-0000-(x1)--------------------|

End: (Play 4 Times)

G|--------------------------------------------------------------------------|
D|--------------------------------------------------------------------------|
A|--2-0---0---------------2-0---0-------------------------------------------|
E|------2---10--8-10-5--------2---10--8-10-10-5-----------------------------|

Rocket Boy bass tab

Kajagoogoo bass tabs for Rocket boy "Rocket Boy" from the album "Gone To The Moon" (2008).

Written by Kajagoogoo.

Almost there ...

Sign in to get your own page with links to favourite songs and more. You are just one click away...

Login with Facebook Login with Google