Log in

One click and you are in

Login with Facebook Login with Google

Why sign up and log in

Guitar Tabs Explorer
Kajagoogoo bass tabs for Never ending story (live)

Never Ending Story (live) bass tab by Kajagoogoo

Kajagoogoo bass tabs for Never ending story (live)

Bass tabs

Tuning: Standard

Original song by Limhal in 1984

This tab is based on a live recording done sometime in 2009 by the
whole band

INTRO
G |-----------------|-----------------|-----------------|-----------------|
D |-----------------|-----------------|-----------------|-----------------|
A |-3-3-3-3-3-3-3-3-|-----------------|-5-5-5-5-5-5-5-5-|-----------------|
E |-----------------|-3-3-3-3-3-3-3-3-|-----------------|-5-5-5-5-3-3-3-3-|
    1 & 2 & 3 & 4 &   1 & 2 & 3 & 4 &   1 & 2 & 3 & 4 &   1 & 2 & 3 & 4 &

G |-----------------|-----------------|-----------------|-----------------|
D |-----------------|-----------------|-----------------|-----------------|
A |-3-3-3-3-3-3-3-3-|-----------------|-5-5-5-5-5-5-5-5-|-----------------|
E |-----------------|-3-3-3-3-3-3-3-3-|-----------------|-5-5-5-5-3-3-3-3-|
    1 & 2 & 3 & 4 &   1 & 2 & 3 & 4 &   1 & 2 & 3 & 4 &   1 & 2 & 3 & 4 &


VERSE
G |-----------------|-----------------|-----------------|-2-2-2-2---------|
D |-----------------|-----------------|-----------------|---------5-5-5-5-|
A |-3-3-3-3-3-3-3-3-|-----------------|-5-5-5-5-5-5-5-5-|-----------------|
E |-----------------|-3-3-3-3-3-3-3-3-|-----------------|-----------------|
    1 & 2 & 3 & 4 &   1 & 2 & 3 & 4 &   1 & 2 & 3 & 4 &   1 & 2 & 3 & 4 &

G |-----------------|-----------------|-----------------|-2-2-2-2---------|
D |-----------------|-----------------|-----------------|---------5-5-5-5-|
A |-3-3-3-3-3-3-3-3-|-----------------|-5-5-5-5-5-5-5-5-|-----------------|
E |-----------------|-3-3-3-3-3-3-3-3-|-----------------|-----------------|
    1 & 2 & 3 & 4 &   1 & 2 & 3 & 4 &   1 & 2 & 3 & 4 &   1 & 2 & 3 & 4 &

G |-----------------|-----------------|-----------------|-----------------|
D |-----------------|-----------------|-6-6-6-6-6-6-6-6-|-8-8-8-8-8-8-8-8-|
A |-6-6-6-6-6-6-6-6-|-----------------|-----------------|-----------------|
E |-----------------|-8-8-8-8-8-8-8-8-|-----------------|-----------------|
    1 & 2 & 3 & 4 &   1 & 2 & 3 & 4 &   1 & 2 & 3 & 4 &   1 & 2 & 3 & 4 &

G |-----------------|-----------------|-----------------|-----------------|
D |-----------------|-----------------|-6-6-6-6-6-6-6-6-|-8-8-8-8-8-8-8-8-|
A |-6-6-6-6-6-6-6-6-|-----------------|-----------------|-----------------|
E |-----------------|-8-8-8-8-8-8-8-8-|-----------------|-----------------|
    1 & 2 & 3 & 4 &   1 & 2 & 3 & 4 &   1 & 2 & 3 & 4 &   1 & 2 & 3 & 4 &

BRIDGE
G |-----------------|-----------------|-----------------|-----------------|
D |-----------------|-----------------|-----------------|-----------------|
A |-3-3-3-3-3-3-3-3-|-----------------|-5-5-5-5-5-5-5-5-|-----------------|
E |-----------------|-3-3-3-3-3-3-3-3-|-----------------|-3-3-3-3-3-3-3-3-|
    1 & 2 & 3 & 4 &   1 & 2 & 3 & 4 &   1 & 2 & 3 & 4 &   1 & 2 & 3 & 4 &

G |-----------------|-----------------|-----------------|-----------------|
D |-----------------|-----------------|-----------------|-----------------|
A |-3-3-3-3-3-3-3-3-|-----------------|-5-5-5-5-5-5-5-5-|-----------------|
E |-----------------|-3-3-3-3-3-3-3-3-|-----------------|-3-3-3-3-3-3-3-3-|
    1 & 2 & 3 & 4 &   1 & 2 & 3 & 4 &   1 & 2 & 3 & 4 &   1 & 2 & 3 & 4 &


VERSE
G |-----------------|-----------------|-----------------|-2-2-2-2---------|
D |-----------------|-----------------|-----------------|---------5-5-5-5-|
A |-3-3-3-3-3-3-3-3-|-----------------|-5-5-5-5-5-5-5-5-|-----------------|
E |-----------------|-3-3-3-3-3-3-3-3-|-----------------|-----------------|
    1 & 2 & 3 & 4 &   1 & 2 & 3 & 4 &   1 & 2 & 3 & 4 &   1 & 2 & 3 & 4 &

G |-----------------|-----------------|-----------------|-2-2-2-2---------|
D |-----------------|-----------------|-----------------|---------5-5-5-5-|
A |-3-3-3-3-3-3-3-3-|-----------------|-5-5-5-5-5-5-5-5-|-----------------|
E |-----------------|-3-3-3-3-3-3-3-3-|-----------------|-----------------|
    1 & 2 & 3 & 4 &   1 & 2 & 3 & 4 &   1 & 2 & 3 & 4 &   1 & 2 & 3 & 4 &

G |-----------------|-----------------|-----------------|-----------------|
D |-----------------|-----------------|-6-6-6-6-6-6-6-6-|-8-8-8-8-8-8-8-8-|
A |-6-6-6-6-6-6-6-6-|-----------------|-----------------|-----------------|
E |-----------------|-8-8-8-8-8-8-8-8-|-----------------|-----------------|
    1 & 2 & 3 & 4 &   1 & 2 & 3 & 4 &   1 & 2 & 3 & 4 &   1 & 2 & 3 & 4 &

G |-----------------|-----------------|-----------------|-----------------|
D |-----------------|-----------------|-6-6-6-6-6-6-6-6-|-8-8-8-8-8-8-8-8-|
A |-6-6-6-6-6-6-6-6-|-----------------|-----------------|-----------------|
E |-----------------|-8-8-8-8-8-8-8-8-|-----------------|-----------------|
    1 & 2 & 3 & 4 &   1 & 2 & 3 & 4 &   1 & 2 & 3 & 4 &   1 & 2 & 3 & 4 &


BRIDGE
G |-----------------|-----------------|-----------------|-----------------|
D |-----------------|-----------------|-----------------|-----------------|
A |-3-3-3-3-3-3-3-3-|-----------------|-5-5-5-5-5-5-5-5-|-----------------|
E |-----------------|-3-3-3-3-3-3-3-3-|-----------------|-3-3-3-3-3-3-3-3-|
    1 & 2 & 3 & 4 &   1 & 2 & 3 & 4 &   1 & 2 & 3 & 4 &   1 & 2 & 3 & 4 &

G |-----------------|-----------------|-----------------|-----------------|
D |-----------------|-----------------|-----------------|-----------------|
A |-6-6-6-6-6-6-6-6-|-----------------|-8-8-8-8-8-8-8-8-|-----------------|
E |-----------------|-6-6-6-6-6-6-6-6-|-----------------|-6-6-6-6-6-6-6-6-|
    1 & 2 & 3 & 4 &   1 & 2 & 3 & 4 &   1 & 2 & 3 & 4 &   1 & 2 & 3 & 4 &

MUSIC BIT
G |-----------------|-----------------|-----------------|-----------------|
D |-----------------|-----------------|-----------------|-----------------|
A |-----------------|-----------------|-2-------2---2---|-2-------2---2---|
E |-3-------3---3---|-0-------0---0---|-----------------|-----------------|
    1 & 2 & 3 & 4 &   1 & 2 & 3 & 4 &   1 & 2 & 3 & 4 &   1 & 2 & 3 & 4 &

G |-----------------|-----------------|-----------------|-----------------|
D |-----------------|-----------------|-----------------|-----------------|
A |-3-------3---3---|-5-------5---5---|-----------------|-----------------|
E |-----------------|-----------------|-3-------3---3---|-3-------3---3---|
    1 & 2 & 3 & 4 &   1 & 2 & 3 & 4 &   1 & 2 & 3 & 4 &   1 & 2 & 3 & 4 &

G |-----------------|-----------------|-----------------|-----------------|
D |-----------------|-----------------|-----------------|-----------------|
A |-----------------|-----------------|-5-------5---5---|-5-------5---5---|
E |-6-------6---6---|-3-------3---3---|-----------------|-----------------|
    1 & 2 & 3 & 4 &   1 & 2 & 3 & 4 &   1 & 2 & 3 & 4 &   1 & 2 & 3 & 4 &

G |-----------------|-----------------|-----------------|-----------------|
D |-----------------|-----------------|-----------------|-----------------|
A |-6-------6---6---|-8-------8---8---|-----------------|-----------------|
E |-----------------|-----------------|-6-------6---6---|-6-------6---6---|
    1 & 2 & 3 & 4 &   1 & 2 & 3 & 4 &   1 & 2 & 3 & 4 &   1 & 2 & 3 & 4 &

G |-----------------|-----------------|
D |-----------------|-----------------|
A |-----------------|-----------------|
E |-3-------3---3---|-0-------0---0---|
    1 & 2 & 3 & 4 &   1 & 2 & 3 & 4 &


VERSE
G |-----------------|-----------------|-----------------|-2-2-2-2---------|
D |-----------------|-----------------|-----------------|---------5-5-5-5-|
A |-3-3-3-3-3-3-3-3-|-----------------|-5-5-5-5-5-5-5-5-|-----------------|
E |-----------------|-3-3-3-3-3-3-3-3-|-----------------|-----------------|
    1 & 2 & 3 & 4 &   1 & 2 & 3 & 4 &   1 & 2 & 3 & 4 &   1 & 2 & 3 & 4 &

G |-----------------|-----------------|-----------------|-2-2-2-2---------|
D |-----------------|-----------------|-----------------|---------5-5-5-5-|
A |-3-3-3-3-3-3-3-3-|-----------------|-5-5-5-5-5-5-5-5-|-----------------|
E |-----------------|-3-3-3-3-3-3-3-3-|-----------------|-----------------|
    1 & 2 & 3 & 4 &   1 & 2 & 3 & 4 &   1 & 2 & 3 & 4 &   1 & 2 & 3 & 4 &

G |-----------------|-----------------|-----------------|-----------------|
D |-----------------|-----------------|-6-6-6-6-6-6-6-6-|-8-8-8-8-8-8-8-8-|
A |-6-6-6-6-6-6-6-6-|-----------------|-----------------|-----------------|
E |-----------------|-8-8-8-8-8-8-8-8-|-----------------|-----------------|
    1 & 2 & 3 & 4 &   1 & 2 & 3 & 4 &   1 & 2 & 3 & 4 &   1 & 2 & 3 & 4 &

G |-----------------|-----------------|-----------------|-----------------|
D |-----------------|-----------------|-6-6-6-6-6-6-6-6-|-8-8-8-8-8-8-8-8-|
A |-6-6-6-6-6-6-6-6-|-----------------|-----------------|-----------------|
E |-----------------|-8-8-8-8-8-8-8-8-|-----------------|-----------------|
    1 & 2 & 3 & 4 &   1 & 2 & 3 & 4 &   1 & 2 & 3 & 4 &   1 & 2 & 3 & 4 &


ENDING
G |-----------------|-----------------|-----------------|-----------------|
D |-----------------|-----------------|-----------------|-----------------|
A |-3-3-3-3-3-3-3-3-|-----------------|-5-5-5-5-5-5-5-5-|-----------------|
E |-----------------|-3-3-3-3-3-3-3-3-|-----------------|-3-3-3-3-3-3-3-3-|
    1 & 2 & 3 & 4 &   1 & 2 & 3 & 4 &   1 & 2 & 3 & 4 &   1 & 2 & 3 & 4 &
REPEATS

Almost there ...

Sign in to get your own page with links to favourite songs and more. You are just one click away...

Login with Facebook Login with Google