Log in

One click and you are in

Login with Facebook Login with Google

Why sign up and log in

Guitar Tabs Explorer
Kaj guitar tabs for Heimani i skick

Guitar tabs

-------------------------------------------------------------------------------
                             Heimani i skick - KAJ
-------------------------------------------------------------------------------


Tuning: Standard
Riff:
 A chord diagramB minorBm             A chord diagramG MajorG             A chord diagramD MajorD             A chord diagramA majorA
e|--------2-0--|---------0---|--------0-2--|----------|
B|-0-0--0-----3|-3-3--3-3---3|-3-3--3-----3|-2-2--2-3-|
G|-------------|-------------|-------------|----------|
D|-------------|-------------|-------------|----------|
A|-------------|-------------|-------------|----------|
E|-------------|-------------|-------------|----------|

Alternativt:

 A chord diagramB minorBm                 A chord diagramG MajorG                A chord diagramD MajorD                  A chord diagramA majorA
e|-2--2---2--2-0---|-3--3---3--0----|-2--2---2---0-2---|-0--0---0---------|
B|-3--3---3------3-|-0--0---0-----3-|-3--3---3-------3-|-2--2---2--3-2----|
G|-4--4---4--------|-0--0---0-------|-2--2---2---------|-2--2---2---------|
D|-4--4---4--------|-0--0---0-------|-0--0---0---------|-2--2---2---------|
A|-2--2---2--------|-2--2---2-------|------------------|-0--0---0---------|
E|-2--2---2--------|-3--3---3-------|------------------|------------------|

I verserna spelas samma ackord i samma ordning, d.v.s. Bm,G,D,A.

************************************

| /   slide up
| \   slide down
| h   hammer-on
| p   pull-off
| ~   vibrato
| +   harmonic
| x   Mute note
| b   Bend
| pb  Pre-bend
| br  Bend release
| pbr Pre-bend release
| brb Bend release bend

************************************

Almost there ...

Sign in to get your own page with links to favourite songs and more. You are just one click away...

Login with Facebook Login with Google