Log in

One click and you are in

Login with Facebook Login with Google

Why sign up and log in

Guitar Tabs Explorer
Kaia guitar tabs for Leo

Guitar tabs

Leo
by Kaia

E---------------------------2-----2----------
B---2-----2-----0-----0--------0-------------
G--------------------------------------------	x5
D------4-----4-----4-----4-----------4-------
A--------------------------------------------
E--------------------------------------------
E--------------------------------------------
B---2-----2-----0-----0-----0-----0-----0----
G--------------------------------------------	x1
D------4-----4-----4-----4-----4-----4-----4-
A--------------------------------------------
E--------------------------------------------


E---------------------------2-----2----------
B---2-----2-----0-----0--------0-------------
G--------------------------------------------	x2
D------4-----4-----4-----4-----------4-------
A--------------------------------------------
E--------------------------------------------


E------------------------------2-------------
B---2-----2-----0-----0-----0-----0----------
G--------------------------------------------	x1
D------4-----4-----4-----4-----------4-------
A--------------------------------------------
E--------------------------------------------


E---------------------------------------------
B---2-----2-----0-----0-----0-----0-----0-----
G---------------------------------------------	x1
D------4-----4-----4-----4-----4-----4-----4--
A---------------------------------------------
E---------------------------------------------

E---------------------------2-----2-----------
B---2-----2-----0-----0--------0--------------
G---------------------------------------------	x3
D------4-----4-----4-----4-----------4--------
A---------------------------------------------
E---------------------------------------------


E---------------------------------------------
B---2-----2-----0-----------------------------
G---------------------------------------------	x1
D------4-----4--------------------------------
A---------------------------------------------
E---------------------------------------------

_________________________________________________________________

Almost there ...

Sign in to get your own page with links to favourite songs and more. You are just one click away...

Login with Facebook Login with Google