Log in

One click and you are in

Login with Facebook Login with Google

Why sign up and log in

Guitar Tabs Explorer
Kadebostany guitar tabs for Mind if i stay

Guitar tabs

  • Capo on 2nd
Tuning: Standard (E A D G B E)


solo of the trombone translated for the guitar:

********** Capo 0n 2nd fret

e|---------------------------------------------------------------------------|
B|---------------------------------------------------------------------------|
G|---0-----9/12--------------------9-10--12-10-9----9h10p9\7--9--------------|
D|---------------------------------------------------------------------------|
A|---------------------------------------------------------------------------|
E|---------------------------------------------------------------------------|
     |     |     |     |     |     |     |     |    |    |    |    |    |

e|---------------------------------------------------------------------------|
B|---------------------------------------------------------------------------|
G|------------9/10--9-----9www-----------------7-----------------------------|
D|---10-10-10----------------------------------------------------------------|
A|---------------------------------------------------------------------------|
E|---------------------------------------------------------------------------|
     |        |     |     |     |     |     |


*********** No Capo

e|---------------------------------------------------------------------------|
B|---------------------------------------------------------------------------|
G|---2-----11/14-------------------11-12-14-12-11---11h12p11\9--11-----------|
D|---------------------------------------------------------------------------|
A|---------------------------------------------------------------------------|
E|---------------------------------------------------------------------------|
     |     |     |     |     |     |     |     |    |     |      |    |    |

e|---------------------------------------------------------------------------|
B|---------------------------------------------------------------------------|
G|------------11/12--11---11www-------------7--------------------------------|
D|---12-12-12----------------------------------------------------------------|
A|---------------------------------------------------------------------------|
E|---------------------------------------------------------------------------|
     |        |     |     |     |     |     |


************************************

| |   Pulsation
| h   Hammer-on
| p   Pull-off
| /   Slide up
| \   Slide down
| www Vibrato

************************************

Other versions of Mind If I Stay

Mind if I stayChords

Almost there ...

Sign in to get your own page with links to favourite songs and more. You are just one click away...

Login with Facebook Login with Google