Log in

One click and you are in

Login with Facebook Login with Google

Why sign up and log in

Guitar Tabs Explorer
Joshua Kaddison guitar tabs for Jessie

Guitar tabs with lyrics

Jessie - Joshua Kaddison

Let all chords ring!

e---2-3-2---------0--------------------------------------------------||
B---3-----3-------2---------2-3---3-------------0-------3-----3------||
G-2-----------2-----------2-------0---------------2-----2-----0-----o||
D---0---------------------------------------------------------------o||
A-----------------0-----------------------------------------0--------||
E---------------------------------0-----------------3----------------||

    1               1               1               1

A chord diagramDsus2Dsus2   xx0230
em7     02203x
(A chord diagramD MajorD)     2xxxxx
A chord diagramG MajorG       32003x
A chord diagramAsus4Asus4   x0223x
A chord diagramA majorA       x0222x
bm      x24432

A chord diagramDsus2Dsus2                 em7   (A chord diagramD MajorD)    A chord diagramG MajorG                A chord diagramDsus2Dsus2
From a phone booth in ...
A chord diagramDsus2Dsus2                 em7   (A chord diagramD MajorD)    A chord diagramG MajorG    A chord diagramDsus2Dsus2
To tell me that she's ...
         A chord diagramD MajorD               em7   (A chord diagramD MajorD)        A chord diagramG MajorG                A chord diagramDsus2Dsus2
She says 'Baby I've been ...
A chord diagramD MajorD            em7 (A chord diagramD MajorD) A chord diagramG MajorG                  A chord diagramAsus4Asus4 A chord diagramA majorA
We can go to Mexico: you, ...
            bm   A chord diagramA majorA              A chord diagramG MajorG
We drink tequila   and ...
            bm      A chord diagramA majorA           A chord diagramG MajorG
Now         doesn't ...
bm                 A chord diagramG MajorG
Jessie, you ...
A chord diagramG MajorG                          A chord diagramA majorA   A chord diagramG MajorG   A chord diagramA majorA   A chord diagramG MajorG A chord diagramA majorA
Everytime I get ...

e--2-------2---0-3-----------0-----2---2---------------------------------
B--3-------------------3---3-------3-------3---3-----------2-------------
G------2-------------0---------------------------0---------2---2---------
D--0-------------------------------0-------------------0-----------------
A----------------------------------------------------------0-------------
E------------------3-------------------------------3---------------------

e--2---------2-0-0---------------------------------------0---------------
B--3-------------------3-------3-----2-2-2-----3-3-----3-2---------------
G------2-----------------------0-----2-2-2-----------2-------2-----------
D--0-------0---------0-----------------------------0---------------------
A----------------------------------0---------------------0---------------
E------------------3------(3)--------------------3-----------------------

e--2---------2-0-0-------------------------------------------------------
B--3-------------------3-------3-----2-2-2-----3-3-----------------------
G------2-----------------------0-----2-2-2-------2--------Repeat-intro---
D--0-------0---------0---------------------------0-----------------------
A----------------------------------0-------------------------------------
E------------------3------(3)--------------------------------------------
                                                 ^*

*: this here actually collides with the first note of the intro,
   but you can insert a measure of silence

  bm       A chord diagramA majorA       A chord diagramG MajorG
I love you in ...
        bm          A chord diagramA majorA          A chord diagramG MajorG
Lay you down in the ...
    bm              A chord diagramG MajorG
And who knows ..
A chord diagramG MajorG                                      A chord diagramA majorA   A chord diagramG MajorG   A chord diagramA majorA   A chord diagramG MajorG A chord diagramA majorA
Things may turn out just ...


Thanks to yoast@xs4all.nl ('Yoast' Nicasie) for the lyrics
--
Matthias Rohe
rohe@uni-paderborn.de

Almost there ...

Sign in to get your own page with links to favourite songs and more. You are just one click away...

Login with Facebook Login with Google