Log in

One click and you are in

Login with Facebook Login with Google

Why sign up and log in

Guitar Tabs Explorer
Kadavar guitar tabs for Goddess of dawn

Guitar tabs

Riff 1
        PM--|        PM--|        PM--|
|----------------------------------------------------------|
|----------------------------------------------------------|
|----------------------------------------------------------|
|--7-7--7-7-7---7-7--7-7-7---7-7--7-7-7---5-x-x---5-x-x----|
|--7-7--7-7-7---7-7--7-7-7---7-7--7-7-7---5-x-x---5-x-x----|
|--5-5--5-5-5---5-5--5-5-5---5-5--5-5-5---3-x-x---3-x-x----|
        PM--|        PM--|        PM--|
|----------------------------------------------------------|
|----------------------------------------------------------|
|----------------------------------------------------------|
|--7-7--7-7-7---7-7--7-7-7---7-7--7-7-7----10--9--5--------|
|--7-7--7-7-7---7-7--7-7-7---7-7--7-7-7----10--9--5--------|
|--5-5--5-5-5---5-5--5-5-5---5-5--5-5-5----8---7--3--------|




Riff 2

|----------------------------------------------------------|
|----------------------------------------------------------|
|----------------------------------------------------------|
|---7-7-7-7-7-7-7-7-7-7-7-7-8-8-8-8-8-8-8--10--8-----------|
|---7-7-7-7-7-7-7-7-7-7-7-7-8-8-8-8-8-8-8--10--8-----------|
|---5-5-5-5-5-5-5-5-5-5-5-5-6-6-6-6-6-6-6--8---6-----------|


   PM---------------------| PM----------|
|----------------------------------------------------------|
|----------------------------------------------------------|
|----------------------------------------------------------|
|---7-7-7-7-7-7-7-7-7-7-7-7-8-8-8-8-8-8-8--10--8-----------|
|---7-7-7-7-7-7-7-7-7-7-7-7-8-8-8-8-8-8-8--10--8-----------|
|---5-5-5-5-5-5-5-5-5-5-5-5-6-6-6-6-6-6-6--8---6-----------|

   PM---------------------| PM----------|
|----------------------------------------------------------|
|----------------------------------------------------------|
|----------------------------------------------------------|
|---7-7-7-7-7-7-7-7-7-7-7-7-8-8-8-8-8-8-8--10--8-----------|
|---7-7-7-7-7-7-7-7-7-7-7-7-8-8-8-8-8-8-8--10--8-----------|
|---5-5-5-5-5-5-5-5-5-5-5-5-6-6-6-6-6-6-6--8---6-----------|


   PM-----------------|
|----------------------------------------------------------|
|----------------------------------------------------------|
|----------------------------------------------------------|
|---7-7-7-7-7-7-7-7-7-7------------------------------------|
|---7-7-7-7-7-7-7-7-7-7--7--5--3--2--3p2-------------------|
|---5-5-5-5-5-5-5-5-5-5-------------------3----------------|




Riff 3

|----------------------------------------------------------|
|----------------------------------------------------------|
|----------------------------------------------------------|
|-7-7-7-x-10--8--8-8--5--5-5---7-7-7-x-10--8--8-8--5--5-5--|
|-7-7-7-x-10--8--8-8--5--5-5---7-7-7-x-10--8--8-8--5--5-5--|
|-5-5-5-x-8---6--6-6--3--3-3---5-5-5-x-8---6--6-6--3--3-3--|


|----------------------------------------------------------|
|----------------------------------------------------------|
|----------------------------------------------------------|
|-7-7-7-x-10--8--8-8--5--5-5---7-7-7-x-10--8--8-8--5--5-5--|
|-7-7-7-x-10--8--8-8--5--5-5---7-7-7-x-10--8--8-8--5--5-5--|
|-5-5-5-x-8---6--6-6--3--3-3---5-5-5-x-8---6--6-6--3--3-3--|


|----------------------------------------------------------|
|----------------------------------------------------------|
|----------------------------------------------------------|
|------------------2----------------0----------------------|
|--7s5--5s3--2--0-----2h3p2---2--3-----3--2----------------|
|---------------------------3---------------2--------------|



END

|----------------------------------------------------------|
|----------------------------------------------------------|
|----------------------------------------------------------|
|---8-8---8-8---8-8---8~-----------------------------------|
|---8-8---8-8---8-8---8~-----------------------------------|
|---6-6---6-6---6-6---6~-----------------------------------|



After the "Riff 3" has a little solo, and come back to the "Riff 1",
followed by only the beginning of the "riff 3" and another solo, and
finalizing by the "riff 3" and "END"


p = pull off
s = Slide
h = Hammer-On
PM = Palm mute

Almost there ...

Sign in to get your own page with links to favourite songs and more. You are just one click away...

Login with Facebook Login with Google