Log in

One click and you are in

Login with Facebook Login with Google

Why sign up and log in

Guitar Tabs Explorer
Kadavar bass tabs for Goddess of dawn

Bass tabs

00:08 - Part I
G|------------------------------------|------------------------------------|
D|------------------------------------|------------------------------------|
A|------------------------------------|------------------------------------|
E|-6-6--6-6-6-6-6--6-6-6-6-6-6--4-4-5-|-6-6--6-6-6-6-6--6-6-6-6-6-6--9-8-9-|
00:39 - Part II
G|------------------------------------------|---------------------------------------|
D|------------------------------------------|---------------------------------------|
A|-8--8-8-8-8-8-8-8-8-9-9-9-9-9-9--9-11-9-8-|-8-8-8-8-8-8-8-8-9-9-9-9-9-9--9-11-9-8-|
E|------------------------------------------|---------------------------------------|

G|---------------------------------------|------------------------------|
D|---------------------------------------|------------------------------|
A|-8-8-8-8-8-8-8-8-9-9-9-9-9-9--9-11-9-8-|-8-8-8-8-8-8-8-8--8-6-4-3-4---|
E|---------------------------------------|----------------------------4-|

G|-------------------------------|-------------------------------|
D|-------------------------------|-------------------------------|
A|-------------------------------|-------------------------------|
E|-6--6-6-6-6--6-6-6-6--6\-4-4-5-|-6--6-6-6-6--6-6-6-6--6\-9-8-9-|


01:01 - Repeat Part I


01:33 - Part III
G|--------------------|----------------------|----------------------|
D|--------------------|----------------------|----------------------|
A|-8--8--8-9--9-6-6-6-|-8-8-8--8-9-9-9-6-6-6-|-8-8-8--8-9-9-9-6-6-6-|
E|--------------------|----------------------|----------------------|

G|----------------------|---------------------------------|--------------------------------|
D|----------------------|-----------6---------------------|--------------------------------|
A|-8-8-8--8-9-9-9-6-6-6-|-8-8-6-6-4---3h4p3---3-4-6-6-----|--------------------------------|
E|----------------------|-------------------4---------2-4-|-4-6------4-6------4-6------4-6-|

2:15 - Part IV
G|------------------------------------|------------------------------------|
D|------------------------------------|------------------------------------|
A|------------------------------------|------------------------------------|
E|-6-6--6-6-6-6-6--6-6-6-6-6-6--4-4-5-|-6-6--6-6-6-6-6--6-6-6-6-6-6--9-8-9-|

G|------------------------------------|------------------------------------|
D|------------------------------------|------------------------------------|
A|------------------------------------|------------------------------------|
E|-6-6--6-6-6-6-6--6-6-6-6-6-6--4-4-5-|-6-6--6-6-6-6-6--6-6-6-6-6-6--9-8-9-|

G|------------------------------------|-----------------------------------------|
D|------------------------------------|-----------------------------------------|
A|--------------------------------4---|-----------------------------4-3-4-6-4-8-|
E|-6-6--6-6-6-6-6--6-6-6-6-6-6--4---4-|-6-6--6-6-6-6-6--6-6-6-6-6-6-------------|

G|------------------------------------|-----------------------------------------|
D|------------------------------------|-----------------------------------------|
A|--------------------------------4---|-----------------------------4-3-4-6-4-8-|
E|-6-6--6-6-6-6-6--6-6-6-6-6-6--4---4-|-6-6--6-6-6-6-6--6-6-6-6-6-6-------------|

2:46 Part V
G|--------------------|----------------------|----------------------|----------------------|
D|--------------------|----------------------|----------------------|----------------------|
A|-8--8--8-9--9-6-6-6-|-8-8-8--8-9-9-9-6-6-6-|-8-8-8--8-9-9-9-6-6-6-|-8-8-8--8-9-9-9-6-6-6-|
E|--------------------|----------------------|----------------------|----------------------|

G|----------------------------------|
D|----------------------------------|
A|----------------------------------|
E|-4-6------4-6------4-6------4-6---|


3:17 Part VI
G|-----------------------------------------|-----------------------------------------|
D|-----------------------------------------|-----------------------------------------|
A|-----------------4-4-4-4-4-4-6-6-6-6-6-6-|-----------------4-4-4-4-4-4-6-6-6-6-6-6-|
E|-6-6-6-6-6-6-6-6-------------------------|-6-6-6-6-6-6-6-6-------------------------|

G|-----------------------------------------|-----------------------------------------|
D|-----------------------------------------|-----------------------------------------|
A|-----------------4-4-4-4-4-4-6-6-6-6-6-6-|-----------------4-4-4-4-4-4-6-6-6-6-6-6-|
E|-6-6-6-6-6-6-6-6-------------------------|-6-6-6-6-6-6-6-6-------------------------|


03:32 Part VII
G|--------------------|----------------------|----------------------|----------------------|
D|--------------------|----------------------|----------------------|----------------------|
A|-8--8--8-9--9-6-6-6-|-8-8-8--8-9-9-9-6-6-6-|-8-8-8--8-9-9-9-6-6-6-|-8-8-8--8-9-9-9-6-6-6-|
E|--------------------|----------------------|----------------------|----------------------|

G|----------------------|----------------------|----------------------|----------------------|
D|----------------------|----------------------|----------------------|----------------------|
A|-8-8-8--8-9-9-9-6-6-6-|-8-8-8--8-9-9-9-6-6-6-|-8-8-8--8-9-9-9-6-6-6-|-8-8-8--8-9-9-9-6-6-6-|
E|----------------------|----------------------|----------------------|----------------------|

G|--------------------|
D|--------------------|
A|-------------13-13~-|

↓ Add and view comments below ↓

What do you think about this song and these tabs?

Add your comments, questions, rant or a thumbs up below.

Almost there ...

Sign in to get your own page with links to favourite songs and more. You are just one click away...

Login with Facebook Login with Google