Log in

One click and you are in

Login with Facebook Login with Google

Why sign up and log in

Guitar Tabs Explorer
Kadavar guitar chords for Come back life

Guitar chords

Intro:


e|------------|
B|------------|
G|--7-5-4--7--|
D|--------7---|
A|------------|
E|------------|
                                 X3
e|----------3-2-----2--2-2---2-|
B|----1-1-1-0-3-----3--3-3---3-|
G|----0-0-0-0-2---2-2--2-2-2-2-|
D|----2-2-0-0-0---0-0--0-0-0-0-|
A|----3-3-2-2------------------|
E|----------3------------------|


e|-2--------2-------2------|
B|-3--------3-------3------|
G|-2--------2-------2------|
D|-0--------0-------0------|
A|-------------------------|
E|-------------------------|


e|-----------------------------------------------------------------------|
B|--10-10--7--8--5--7--3--5-/7-7--------10-10--7--8--5--7--3--5-/7-5-----|
G|-------------------------------------------------------------------7---|
D|-----------------------------------------------------------------------|
A|-----------------------------------------------------------------------|
E|-----------------------------------------------------------------------|




Verse:
                                            X2
e|-----------------------------------------|
B|-----------------------------------------|
G|----11----7--9--5--7--4--5--/7-7---------|
D|-----------------------------------------|
A|-----------------------------------------|
E|-----------------------------------------|


e|--8--8--8--8--8--8--8--8--8--8--8--8--8--8--8--8----7--7--7--7--7--7--7--7-------------|
B|--8--8--8--8--8--8--8--8--8--8--8--8--8--8--8--8----8--8--8--8--8--8--8--8---8---------|
G|--9--9--9--9--9--9--9--9--9--9--9--9--9--9--9--9----7--7--7--7--7--7--7--7-------10\---|
D|--10-10-10-10-10-10-10-10-10-10-10-10-10-10-10-10---9--9--9--9--9--9--9--9-------------|
A|----------------------------------------------------10-10-10-10-10-10-10-10------------|
E|---------------------------------------------------------------------------------------|

                                            X2
e|---2------2-----2------------------------|
B|---3------3-----3--0---1--0--------------|
G|---2------2-----2--0---------2---0-------|
D|---0------0-----0------------------------|
A|-----------------------------------------|
E|-----------------------------------------|


e|--8--8--8--8--8--8--8--8--8--8--8--8--8--8--8--8----7--7--7--7--7--7--7--7-------------|
B|--8--8--8--8--8--8--8--8--8--8--8--8--8--8--8--8----8--8--8--8--8--8--8--8---8---------|
G|--9--9--9--9--9--9--9--9--9--9--9--9--9--9--9--9----7--7--7--7--7--7--7--7-------10\---|
D|--10-10-10-10-10-10-10-10-10-10-10-10-10-10-10-10---9--9--9--9--9--9--9--9-------------|
A|----------------------------------------------------10-10-10-10-10-10-10-10------------|
E|---------------------------------------------------------------------------------------|


e|---2------2-----2------------------------|
B|---3------3-----3--0---1--0--------------|
G|---2------2-----2--0---------2---0-------|
D|---0------0-----0------------------------|
A|-----------------------------------------|
E|-----------------------------------------|


e|---2------2-----2--2--2--|
B|---3------3-----3--3--3--|
G|---2------2-----2--2--2--|
D|---0------0-----0--0--0--|
A|-------------------------|
E|-------------------------|

Pre-Verse:


e|-----------------------------------------------------------------------|
B|--10-10--7--8--5--7--3--5-/7-7--------10-10--7--8--5--7--3--5-/7-5-----|
G|-------------------------------------------------------------------7---|
D|-----------------------------------------------------------------------|
A|-----------------------------------------------------------------------|
E|-----------------------------------------------------------------------|



Verse:
                                            X4
e|-----------------------------------------|
B|-----------------------------------------|
G|----11----7--9--5--7--4--5--/7-7---------|
D|-----------------------------------------|
A|-----------------------------------------|
E|-----------------------------------------|


Instrumental:
                                                                  X2
e|---------------------------------------------------------------|
B|---------------------------------------------------------------|
G|---------------------------------------------------------------|
D|----------------8--10------------------------------------------|
A|---------8--10-----------10--8---------------------------------|
E|--8--10-------------------------10--7--8--7-\10----------------|


e|------------------------------------------------|
B|------------------------------------------------|
G|------------------------------------------------|
D|----------------8--10---------------------------|
A|---------8--10-----------10--8------------------|
E|--8--10-------------------------10--7---8--7--8-|


   SPEED UP GRADUALLY                               X2
e|------------------------------------------------|
B|------------------------------------------------|
G|------------------------------------------------|
D|------------------------------------------------|
A|-7--7--7--7--7--7--7--7--7--7--7--7--7--7--7--7-|
E|-5--5--5--5--5--5--5--5--5--5--5--5--5--5--5--5-|


Chorus:


e|---------------------------------------|
B|---------------------------------------|
G|---------------------------------------|
D|---------------------------------------|
A|--7---7---7--x-7-5---7---7---7--x-7-10-|
E|--5---5---5--x-5-3---5---5---5--x-5-8--|


e|-----------------------------------------------|
B|-----------------------------------------------|
G|-----------------------------------------------|
D|---------------------------------------------5-|
A|--7---7---7--x-7-5-----7---7----------3--5h7---|
E|--5---5---5--x-5-3-----5---5---x--3h5----------|

                                          X4
e|---------------------------------------|
B|---------------------------------------|
G|---------------------------------------|
D|---------------------------------------|
A|--7---7---7--x-7-5---7---7---7--x-7-10-|
E|--5---5---5--x-5-3---5---5---5--x-5-8--|


Instrumental:
                                 X4
e|------------------------------|
B|------------------------------|
G|-----5-7----5-7----5-7----5-7-|
D|---0------0------0------0-----|
A|------------------------------|
E|------------------------------|


e|---2-2----3-3--|
B|---3-3----3-3--|
G|---2-2----2-2--|
D|---0-0----0-0--|
A|---------------|
E|---------------|


JUST KEEPS TRUMMING A chord diagramD MajorD WITH THESE VARIATIONS X12 THEN END WITH A chord diagramD MajorD
e|-2--3--2--3-|
B|-3--3--3--3-|
G|-2--2--2--0-|
D|-0--0--0--0-|
A|------------|
E|------------|

Pre-Verse:


e|-----------------------------------------------------------------------|
B|--10-10--7--8--5--7--3--5-/7-7--------10-10--7--8--5--7--3--5-/7-5-----|
G|-------------------------------------------------------------------7---|
D|-----------------------------------------------------------------------|
A|-----------------------------------------------------------------------|
E|-----------------------------------------------------------------------|


Verse:
                                            X2
e|-----------------------------------------|
B|-----------------------------------------|
G|----11----7--9--5--7--4--5--/7-7---------|
D|-----------------------------------------|
A|-----------------------------------------|
E|-----------------------------------------|


Pre-Solo:
                                   X4
e|--------------------------------|
B|--------------------------------|
G|--------------------------------|
D|------------------------3-------|
A|--5---3-5----3-5----3-5---5-3---|
E|----5------5------5-----------5-|


Solo:


e|-----------------------------------------------/12-10-12-14-12-14-15-14-15-17-15-14-15-14s12-14-12-10-|
B|-----------------------10b11-10b11-10b11r10-7---------------------------------------------------------|
G|---9b10-9b10-9b10r9-7---------------------------------------------------------------------------------|
D|------------------------------------------------------------------------------------------------------|
A|------------------------------------------------------------------------------------------------------|
E|------------------------------------------------------------------------------------------------------|


e|-------------------------------------------------------------------|
B|-12-10--8--7--5--3-5-3-5--5b6--5b6r5-3----------------3----3-5-3-5-|
G|----------------------------------------4---4-----2-4----4---------|
D|----------------------------------------------2-4------------------|
A|-------------------------------------------------------------------|
E|-------------------------------------------------------------------|


e|---------------------------------------------------------------10-12b13---12b13--(13)r12--10---------------|
B|---------------------10b11-10b11-10b11r10-7--------7-10--10s12-------------------------------12-10-8-7-----|
G|-9b10-9b10-9b10r9-7--------------------------9-7-9-----------------------------------------------------9p7-|
D|-----------------------------------------------------------------------------------------------------------|
A|-----------------------------------------------------------------------------------------------------------|
E|-----------------------------------------------------------------------------------------------------------|


e|-----------------------------------------------------------------------------------------------------------|
B|-----------------------------------------------------------------------------------------------------------|
G|-9b10--9b10--9b10--9b10-7h9p7h9p7h9p7h9p7h9p7h9p7-9b10-9b10-9b10-9b10-9b10-9b10-9b10-9b10--7h9p7h9p7h9p7\9-|
D|-----------------------------------------------------------------------------------------------------------|
A|-----------------------------------------------------------------------------------------------------------|
E|-----------------------------------------------------------------------------------------------------------|


Outro:


e|---------------------------------------------------------------|
B|---------------------------------------------------------------|
G|----5----------------------------------7-----------------------|
D|----5-------------5--------------------7-----------------------|
A|----3-------------5--------------------5-----------------------|
E|------------------3--------------------------------------------|

↓ Add and view comments below ↓

What do you think about this song and these chords?

Add your comments, questions, rant or a thumbs up below.

Almost there ...

Sign in to get your own page with links to favourite songs and more. You are just one click away...

Login with Facebook Login with Google