Log in

One click and you are in

Login with Facebook Login with Google

Why sign up and log in

Guitar Tabs Explorer
Kadavar guitar tabs for All your thoughts

Guitar tabs

Tuning: Standard (E A D G B E)

Difficulty: Intermediate

Kadavar - All Your Thoughts

Intro:

e|---------------------------------------------------------------------------------|
e|---------------------------------------------------------------------------------|
G|-------------------------12h14p12------------------------------------------------|
D|-12h14-14-12-12h14-14-14----------14-12-12h14-14-12-12h14-14-------12------------| x4
A|-0-----------0--------------------------0-----------0--------12h14----14---------|
E|---------------------------------------------------------------------------------|

e|-----------------------------------------------------------------------------------------------------------|
B|-------------------------------------------------------------15h17p15-------15h17p15------15h17p15------15-|
G|---------------7-7-7---7/8------------/12-9----9~~--------------------16-16----------16-16---------16-16---|
D|-7/9-9-9-9--/9-------9-----7/9-9-9-9--------12------7/9-9-9-9----------------------------------------------|
A|-5/7-7-7-7-----------------5/7-7-7-7----------------5/7-7-7-7----------------------------------------------|
E|-----------------------------------------------------------------------------------------------------------|

e|-----------------------------------------------------------------------------------------------------------|
B|------------------------------------------------------------15h17p15-------15h17p15-------15h17p15-------17|
G|---------------7-7-7---7/9-----------/12-9----9~~--------------------16-16----------16-16----------16-16---|
D|-7/9-9-9-9--/9-------9-----7/9-9-9-9-------12-----7/9-9-9-9------------------------------------------------|
A|-5/7-7-7-7-----------------5/7-7-7-7--------------5/7-7-7-7------------------------------------------------|
E|-----------------------------------------------------------------------------------------------------------|

e|------------------------------|
B|------------------------------|
G|------------14b-14b-12~-------|
D|-7/9-9-9-9--------------------|
A|-5/7-7-7-7--------------------|
E|------------------------------|

e|--------------------------------------------------------------------------|
e|--------------------------------------------------------------------------|
G|-------------------------12h14p12-----------------------------------------|
D|-12h14-14-12-12h14-14-14----------14-12-12h14-14-12-12h14-14-------12-----|
A|-0-----------0--------------------------0-----------0--------12h14----14--|
E|--------------------------------------------------------------------------|

e|------------------------------------------------|
B|------------------------------------------------|
G|------------------------------------------------|
D|------------------------------------------------|
A|----------5-7-----------------------------5-5-7-|
E|-0--3-5-7-------0-0-0--3-3-3-5-5-5-7-7-7--------|


Verse:

e|----------------------------------------------------------------------------------------------------------|
B|----------------------------------------------------------------------------------------------------------|
G|----------------------------------------------------------------------------------------------------------|
D|-7/9-9-9--9-9\7-7-7-7--7-7--12/14-14-7/9---------5h7p5----9-7-7/9-9-9--9-9\7-7-7-7--7-7--7-7-12-7/9---9---|
A|-5/7-7-7--7-7\5-5-5-5--5-5--10/12-12-5/7---7-5-7-------7--7-5-5/7-7-7--7-7\5-5-5-5--5-5--5-5-10-5/7---7---|
E|----------------------------------------------------------------------------------------------------------|

e|---------------|
B|---------------|
G|-/9-7----------| x2
D|------9-7-5----|
A|---------------|
E|---------------|

e|------------------------------------------------|
B|------------------------------------------------|
G|------------------------------------------------|
D|-7-7-7-7-7-7-7-7-7-7-7--8-8-8-8-8-8-8-8-8-8-----|
A|-5-5-5-5-5-5-5-5-5-5-5--6-6-6-6-6-6-6-6-6-6-----|
E|------------------------------------------------|

e|----------------------------------------------------------------------------------------------------------|
B|----------------------------------------------------------------------------------------------------------|
G|----------------------------------------------------------------------------------------------------------|
D|-7/9-9-9--9-9\7-7-7-7--7-7--12/14-14-7/9---------5h7p5----9-7-7/9-9-9--9-9\7-7-7-7--7-7--7-7-12-7/9---9---|
A|-5/7-7-7--7-7\5-5-5-5--5-5--10/12-12-5/7---7-5-7-------7--7-5-5/7-7-7--7-7\5-5-5-5--5-5--5-5-10-5/7---7---|
E|----------------------------------------------------------------------------------------------------------|

e|---------------|
B|---------------|
G|-/9-7----------| x2
D|------9-7-5----|
A|---------------|
E|---------------|

e|-------------------------------------------------------------------------------------|
B|-------------------------------------------------------------------------------------|
G|-------------------------------------------------------------------------------------|
D|-------------------------------------------------------------------------------------| x2
A|----------5-7---7-5-------------------5-7---------5-7---7-5----------7-5-------------|
E|-0--3-5-7-----------9-5-3-0--0-3-5-7------0-3-5-7-----------9-5-3-0-------9-5-3-0----|

e|------------------------------------------------------------------------------|
B|------------------------------------------------------------------------------|
G|-------------------------12h14p12----------------------------12h14p12---------|
D|-12h14-14-12-12h14-14-14----------14-12-12h14-14-12-12h14-14----------14-12---|
A|-0-----------0--------------------------0-----------0-------------------------|
E|------------------------------------------------------------------------------|

e|------------------------------------------------------------------------------|
B|------------------------------------------------------------------------------|
G|--------------------------12h14p12----------------------------12h14p12--------|
D|--12h14-14-12-12h14-14-14----------14-12-12h14-14-12-12h14-14----------14-12--|
A|--0-----------0--------------------------0-----------0------------------------|
E|------------------------------------------------------------------------------|


Verse:

e|----------------------------------------------------------------------------------------------------------|
B|----------------------------------------------------------------------------------------------------------|
G|----------------------------------------------------------------------------------------------------------|
D|-7/9-9-9--9-9\7-7-7-7--7-7--12/14-14-7/9---------5h7p5----9-7-7/9-9-9--9-9\7-7-7-7--7-7--7-7-12-7/9---9---|
A|-5/7-7-7--7-7\5-5-5-5--5-5--10/12-12-5/7---7-5-7-------7--7-5-5/7-7-7--7-7\5-5-5-5--5-5--5-5-10-5/7---7---|
E|----------------------------------------------------------------------------------------------------------|

e|---------------|
B|---------------|
G|-/9-7----------| x2
D|------9-7-5----|
A|---------------|
E|---------------|

e|----------------------------------------------------------|
B|----------------------------------------------------------|
G|----------------------------------------------------------|
D|----------------------------------------------------------| x2
A|-----------5-7---------5-7---7-5----------7-5-------------|
E|--0-3-5-7------0-3-5-7-----------9-5-3-0-------9-5-3-0----|


Outro:

e|--------------------------------------------|
B|--------------------------------------------|
G|--------------------------------------------|
D|---------------5h7-7----------7-7-7-7p5-----| x2
A|-0-0-0-0-5h7-7--------0-0-0-0-----------7-5-|
E|--------------------------------------------|


************************************

| h   Hammer-on
| p   Pull-off
| b   Bend
| /   Slide up
| \   Slide down
| ~   Vibrato

************************************

↓ Add and view comments below ↓

What do you think about this song and these tabs?

Add your comments, questions, rant or a thumbs up below.

Almost there ...

Sign in to get your own page with links to favourite songs and more. You are just one click away...

Login with Facebook Login with Google