Log in

One click and you are in

Login with Facebook Login with Google

Why sign up and log in

Guitar Tabs Explorer
Kabat guitar tabs for Mala dama

Intro

made by Adinek:-ú
Datum a cas poslední zmeny: 7.12.2006 14:15:00
Malá dáma
Kabát
1x{Intro} + 1x {Intro s perkusemi}
(v odlišném rytmu)
e |-----------------------|-----------------------|
h |--------0--------------|--------0--------------|
A chord diagramG MajorG |-----0-----0-----4-----|-----0-----0-----4-----|
A chord diagramD MajorD |--2-----------4-----4--|--2-----------4-----4--|
A chord diagramA majorA |-----------------------|-----------------------|
A chord diagramE MajorE |-----------------------|-----------------------|
{Intro s doprovedem}
Emi Emi A chord diagramAsus2Asus2 A chord diagramAsus2Asus2
e |-----------------------|-----------------------|-----------------------|-----------------------|
h |--------0--------------|--------0--------------|--------0--------------|--------0--------------|
A chord diagramG MajorG |-----0-----0-----4-----|-----0-----0-----4-----|-----0-----0-----4-----|-----0-----0-----4-----|
A chord diagramD MajorD |--2-----------4-----4--|--2-----------4-----4--|--------------4-----4--|--------------4-----4--|
A chord diagramA majorA |-----------------------|-----------------------|--0--------------------|--0--------------------|
A chord diagramE MajorE |-----------------------|-----------------------|-----------------------|-----------------------|
A chord diagramC majorC H Emi
|-----------------------|-----------------------|--------|
|--------0--------------|--------0--------------|--------|
|-----0-----0-----4-----|-----0-----0-----4-----|--0-----|
|--------------4-----4--|--------------4-----4--|-----2--|
|--3--------------------|--2--------------------|--------|
|-----------------------|-----------------------|--------|

↓ Add and view comments below ↓

What do you think about this song and these tabs?

Add your comments, questions, rant or a thumbs up below.

Almost there ...

Sign in to get your own page with links to favourite songs and more. You are just one click away...

Login with Facebook Login with Google