Log in

One click and you are in

Login with Facebook Login with Google

Why sign up and log in

Guitar Tabs Explorer
K-OS guitar tabs for Heaven only knows

Guitar tabs with lyrics

Heaven only Knows
K-OS


CHORUS

e----------|----------|----------|----------|
E--111-1-1-|--333-3-3-|--444-4-4-|--444-4-4-|
G--111-1-1-|----------|----------|----------|
D----------|--333-3-3-|--555-5-5-|--555-5-5-|
A-----3-3--|-----3-3--|-3--------|-3--------|
E-1--------|-1--------|-----3-3--|-----3-3--|

VERSE

e----------|----------|----------|----------|
E--111-1-1-|--333-3-3-|--444-4-4-|--444-4-4-|
G--111-1-1-|----------|----------|----------|
D----------|--333-3-3-|--555-5-5-|--555-5-5-|
A-----3-3--|-----3-3--|-3--------|-3--------|
E-1--------|-1--------|-----3-3--|-----3-3--|

e----------|----------|----------|----------|
B--444-4-4-|--666-6-6-|--666-6-6-|--444-4-4-|
G--444-4-4-|----------|----------|----------|
D----------|--666-6-6-|--555-5-5-|--555-5-5-|
A-----6-6--|-----6-6--|-3--------|-3--------|
E-4--------|-4--------|-----3-3--|-----3-3--|


It's pretty much CHORUS X2, VERSE X2, CHORUS X2...

This song is pretty simple and sounds great.
There are a few times that one of the "C" notes
(3rd fret on the A chord diagramA majorA string) drops an octave.
Either their guitars are VERY detuned, or there's
something else going on.  I just play it high.

This song is mostly the accoustic guitar.
There's a little bit of drums.  It's strait
8th notes the entire way through.  Listen to
the song.  It's pretty easy to piece together.

This song is "Heaven only knows" by K-OS.
The album in "Exit."

↓ Add and view comments below ↓

What do you think about this song and these tabs?

Add your comments, questions, rant or a thumbs up below.

Almost there ...

Sign in to get your own page with links to favourite songs and more. You are just one click away...

Login with Facebook Login with Google