Log in

One click and you are in

Login with Facebook Login with Google

Why sign up and log in

Guitar Tabs Explorer
Jungle bass tabs for Keep moving

Bass tabs

Tuning: Standard (E A D G)

No bass until 1:49

🎸 Chorus:
                    Keep moving...
G|--------------5p------5p------------|-----6-----8---|
D|-3---1-3--3-------3-------6---------|---------------|
A|---3--------3-------3---------------|---4---4-6---6-|
E|----------------------------6-4-x-6-|-6-------------|

                     Keep moving...
G|--------------5p------5p----6---------|-----3-----1-3--|
D|-3---1-3--3-------3-------------------|---------3------|
A|---3--------3-------3-----3---4-----4-|-4-1---1--------|
E|--------------------------------4-6---|----------------|
🎸 Verse 2:
      Main Avenue if you...
G|--------------5p------5p-----------|-----6-----8---|
D|-3---1-3--3-------3----------------|---------------|
A|---3--------3-------3----3---------|---4---4-6---6-|
E|---------------------------6-4-4h6-|-6-------------|

In a new house...
G|--------------5p------5p----------------|
D|-3---1-3--3-------3---------------------|
A|---3--------3-------3-----3-4-------4-4-|
E|------------------------------x-4-6-----|

🎸 Chorus:
I can hear the alarm...        Keep moving...
G|--------------5p------5p------------|-----6-----8---|
D|-3---1-3--3-------3-------6---------|---------------|
A|---3--------3-------3---------------|---4---4-6---6-|
E|----------------------------6-4-4h6-|-6-------------|

Oh you're braking my heart...        Keep moving...
G|--------------5p------5p-----------------|-----3--|
D|-3---1-3--3-------3----------------------|--------|
A|---3--------3-------3-----3-4--4---------|-4-1----|
E|---------------------------------4-4-4h6-|--------|

🎸 Verse 3:
truth, if you change...   When you're living like...
G|-----------------6-----8--|-----------------------------|
D|-1------------------------|--1-3---1-3--3-----6-----8-8-|
A|---1-----------4---4-6----|------3----------------------|
E|-----1-4-6---6------------|---------------6-4---4-6-----|

In a new house...
G|--------------6-----8-------------|
D|------------------------1-3---1-3-|
A|-1-----1--1-4---4-6---------3-----|
E|---1-4----------------------------|

🎸 Chorus:
I can hear the alarm...             Keep moving...
G|------------------------5p------5p-----------|-----6-----8---|
D|---------3-----1-3--3-------3----------------|---------------|
A|-----------3-3--------3-------3----3---------|---4---4-6---6-|
E|-6-6-4-4-----------------------------6-4-4h6-|-6-------------|

Oh you're braking my heart...
G|---------------5p------5p-----------------|
D|-3----1-3--3-------3----------------------|
A|---3-3-------3-------3-----3-4--4-----4-4-|
E|----------------------------------4-6-----|

🎸 Bridge:
      Oh...            I can't live with it...
G|-------------------------------------|--------------------------|
D|-------------------------------------|--------------------------|
A|-------------------------------------|--------------------------|
E|-6-6-4-4--2--2-2--13\1--1-x--1-2-3-4-|-6--6-6--6-4-6-8-6-4-6--6-|

I can't live with it...
G|------------------------------------|
D|------------------------------------|
A|------------------------------------|
E|-2--2-x--2-1--1-1--1-1-2-3-4-6--6-6-|

No bass until 3:49

🎸 Chorus:
                        Moving, keep...
G|--------------------------------------------|-----------------|
D|---------3---1-3----1-3----1-3--------------|-------------6---|
A|-----------3------3------3------1-4--4-4--4-|-----8----6b---6-|
E|-6-6-4-4------------------------------------|-4-6----6--------|

                     Keep moving...
G|--------------------------------------|------------------|
D|-3---1---------1-3----1-3-------------|--------------6---|
A|---3-----3---3-----3------1-4--4-4--4-|------8----6b---6-|
E|-------1------------------------------|-4-6----6---------|

                   Moving, keep...
G|-------------5p------5p-----------|-----6-----8---|
D|-3---1-3--3------3----------------|---------------|
A|---3--------3------3----3---------|---4---4-6---6-|
E|--------------------------6-4-4h6-|-6-------------|

                           Keep moving...
G|--------------5p------5p------6-------------12-14-|-----3-----1-3--|
D|-3---1-3--3-------3----------------------14-------|---------3------|
A|---3--------3-------3-----3-4---4-----4-----------|-4-1---1--------|
E|----------------------------------4-6-------------|----------------|

🎸 Outro:
G|-------------5p------5p-----------|-----6-----8---|
D|-3---1-3--3------3----------------|---------------|
A|---3--------3------3----3---------|---4---4-6---6-|
E|--------------------------6-4-x-6-|-6-------------|

G|---8-10--------------------------------------------------------------|
D|------------------------8/10\8--8-6----8-6---------------------------|
A|-8------8-6----8-6------------------8-------8---6-8----8-6-----8-6---|
E|------------8------8--6-----------------------8------8------8------8-|

G|---------------------------------------------------------------------|
D|----------8-6----8-6-------------------------------------------------|
A|--------------8------8---8---8--8-6----8-6-----1---1----1------1-----|
E|-6--6-6-6------------------8--------8------8-----1---1----4-1----4-1-|

G|--------------------------------------------------------------------------|
D|--------------------------------------------------------------------------|
A|-8---6-8----8-6----8-6----1-----1--1------1------8---6-8----8-6----8-6----|
E|---8------8-----6------8----1-4------4-1----4-1----8------8-----6------8--|

G|-----------------------|
D|-----------------------|
A|-1---1--1------1-------|
E|---1------4-1----4-1-0-|


************************************

| x  Dead note
| h  Hammer-on
| /  Slide up
| \  Slide down
| P  Pop

************************************

Almost there ...

Sign in to get your own page with links to favourite songs and more. You are just one click away...

Login with Facebook Login with Google