Log in

One click and you are in

Login with Facebook Login with Google

Why sign up and log in

Guitar Tabs Explorer
Jun Togawa bass tabs for Suki suki daisuki

Bass tabs

🎸 Intro:

G|------------------------9-7h-------------------| x2
D|-----------------------------7-----------------|
A|-----------------------------------------------|
E|-5-5-5---5-5-5---1-1-1---------1-0-------------|

🎸 Verse 1:

G|----------------------------------------------| x4
D|-------7-5-4-----------7-5-4------------------|
A|----------------------------------------------|
E|-5-5-5-------5-5-5-5-5-------5----------------|

G|---------------------------------------------------------------------------|
D|---------------5-5-5----------------------5-5-5----------------------------|
A|-5-5-5--5-5-5---------3-3-3--------5-5-5---------7-7-7--7-7-7-7-7-7--------|
E|-----------------------------5-5-5-----------------------------------------|


🎸 Chorus:

G|--------------------------------------------------------------------| x2
D|--------------------------------------------------------------------|
A|-3-3-3-3-3-3-3-3-----------------3-3-3-3-3-3-3-3--------------------|
E|-----------------1-1-1-1-1-1-1-1-----------------1-1-1-1-1-1-1-1----|

G|--------------------------------------------------------------------|
D|--------------------------------------------------------------------|
A|-----------------3-3-3-3-3-3-3-3-----------------3-3-3-3-3-3-3-3----|
E|-1-1-1-1-1-1-1-1-----------------1-1-1-1-1-1-1-1--------------------|

G|--------------------------------------------------------------------|
D|--------------------------------------------------3-3---7--7--------|
A|-----------------3-3-3-3-3-3-3-3------------------------------------|
E|-1-1-1-1-1-1-1-1-----------------1-1-1-1-1-1-1-1--------------------|

🎸 Break:

G|------------------------9-7h-------------------| x2
D|-----------------------------7-----------------|
A|-----------------------------------------------|
E|-5-5-5---5-5-5---1-1-1---------1-0-------------|


🎸 Verse 2:

G|----------------------------------------------| x4
D|-------7-5-4-----------7-5-4------------------|
A|----------------------------------------------|
E|-5-5-5-------5-5-5-5-5-------5----------------|

G|---------------------------------------------------------------------------|
D|---------------5-5-5----------------------5-5-5----------------------------|
A|-5-5-5--5-5-5---------3-3-3--------5-5-5---------7-7-7--7-7-7-7-7-7--------|
E|-----------------------------5-5-5-----------------------------------------|


🎸 Chorus:

G|--------------------------------------------------------------------| x2
D|--------------------------------------------------------------------|
A|-3-3-3-3-3-3-3-3-----------------3-3-3-3-3-3-3-3--------------------|
E|-----------------1-1-1-1-1-1-1-1-----------------1-1-1-1-1-1-1-1----|

G|--------------------------------------------------------------------|
D|--------------------------------------------------------------------|
A|-----------------3-3-3-3-3-3-3-3-----------------3-3-3-3-3-3-3-3----|
E|-1-1-1-1-1-1-1-1-----------------1-1-1-1-1-1-1-1--------------------|

G|--------------------------------------------------------------------|
D|--------------------------------------------------3-3---7-7---------|
A|-----------------3-3-3-3-3-3-3-3------------------------------------|
E|-1-1-1-1-1-1-1-1-----------------1-1-1-1-1-1-1-1--------------------|


Chorus/🎸 Outro:

G|--------------------------------------------------------------------| x2
D|--------------------------------------------------------------------|
A|-3-3-3-3-3-3-3-3-----------------3-3-3-3-3-3-3-3--------------------|
E|-----------------1-1-1-1-1-1-1-1-----------------1-1-1-1-1-1-1-1----|

G|--------------------------------------------------------------------| x6
D|--------------------------------------------------------------------|
A|-----------------3-3-3-3-3-3-3-3-----------------3-3-3-3-3-3-3-3----|
E|-1-1-1-1-1-1-1-1-----------------1-1-1-1-1-1-1-1--------------------|


G|-------------------|
D|-----5-7-----------|
A|-3-3---------------|
E|-------------------|


☠☠☠☠☠☠☠☠☠☠☠☠☠☠☠☠☠☠☠☠☠☠☠☠☠☠☠☠☠☠☠☠☠☠☠☠

| h  Hammer-on

☠☠☠☠☠☠☠☠☠☠☠☠☠☠☠☠☠☠☠☠☠☠☠☠☠☠☠☠☠☠☠☠☠☠☠☠

Almost there ...

Sign in to get your own page with links to favourite songs and more. You are just one click away...

Login with Facebook Login with Google