Log in

One click and you are in

Login with Facebook Login with Google

Why sign up and log in

Guitar Tabs Explorer
Jude guitar tabs for Out of l a

Guitar tabs with lyrics

Out of L.A.
Words and Music by Jude.

Album: No One Is Really Beautiful
The song seems pretty straight-forward and relies on just a few
chords: E, E7, A chord diagramB7B7 and A7.

A chord diagramB7B7
EADGBE
X21202

A chord diagramE MajorE
EADGBE
022100

As for the E7, this shape should be the correct one:

A chord diagramE7E7
EADGBE
020100

And you can use different A chord diagramA7A7 shapes throughout the song:

    A chord diagramA7A7    A chord diagramA7A7     A7(V)   A chord diagramA7A7
E---3-----0------5--------------
B---2-----2------5-------8------
G---2-----0------6-------6------
D---2-----2------5-------7------
A---0-----0------7-------7------
E----------------5--------------

Intro: A chord diagramE MajorE   A chord diagramB7B7   A chord diagramE MajorE   A chord diagramE7E7 (Play 4 times)

Verse:

A chord diagramE MajorE                        A chord diagramB7B7               A chord diagramE MajorE
This town's got to shake down to its roots

A chord diagramE MajorE
I don't know if that's the sands

                      A chord diagramB7B7
Or the tropical fruits

A chord diagramE MajorE
I don't believe all the things I see

        A7(V)
But I'm still betting on you and me

Chorus:

A chord diagramE MajorE                A chord diagramB7B7               A chord diagramE MajorE
Hey hey baby, we gotta get out of L.A.

A chord diagramE MajorE                A chord diagramB7B7               A chord diagramE MajorE
Hey hey baby, we gotta get out of L.A.

Bridge/Riff:

      A chord diagramE7E7                     A7(VI)
E---------------------------------------
B--------3-------3-----------8--8-------
G----------1-------1---------6--6-------
D------------2-------2-------7--7-------
A----------------------------7--7-------
E-----0---------------------------------

(Play twice)

Almost there ...

Sign in to get your own page with links to favourite songs and more. You are just one click away...

Login with Facebook Login with Google