Search tabs and chords

Browse bands and artists

A B C D E F G H I J K L M N O P Q R S T U V W X Y Z #

Log in

[ Register here | Forgot password ]

Guitar Tabs Explorer
Print

Spectre tab by Judas Priest Tabs

Guitar tabs

"Spectre" is a single with an accompanying music video from British metal legends Judas Priest's 18th studio album, "Firepower". "Spectre" is written by Glenn Tipton, Rob Halford & Richie Faulkner.

  • Tuning: Half-Step Down
  • Difficulty: Intermediate
NOTE:
Be careful of the time signature changes between intro and verse
and between verse and chorus (an extra note is added).



Intro
Guitar 1

D#|-10-7----------------------------|-8-7--------------------------|
A#|---------------------------------|------------------------------|
F#|------9-9b10-9-9-7h9-9-9-9b10-9--|-----9-7h9-9-9-7h9-9b10-9-9-9-|
C#|---------------------------------|------------------------------|
G#|---------------------------------|------------------------------|
D#|---------------------------------|------------------------------|

D#|-10-7----------------------------|-8-7--------------------------|
A#|---------------------------------|------------------------------|
F#|------9-9b10-9-9-7h9-9-9-9b10-9--|-----9-7h9-9-9----------------|
C#|---------------------------------|------------------------------|
G#|---------------------------------|------------------------------|
D#|---------------------------------|------------------------------|


Guitar 2

D#|---------------------------------|------------------------------|
A#|---------------------------------|------------------------------|
F#|---------------------------------|------------------------------|
C#|---------------------------------|---------------7-9-10-9-------|
G#|---------------------------------|---------------5-7-8--7-------|
D#|---------------------------------|------------------------0-0-0-|
                                                         p.m . . .

D#|---------------------------------|---------------------------------|
A#|---------------------------------|---------------------------------|
F#|-7-------------------------------|---------------------------------|
C#|---9-----10-9-----7-9-----10-9---|-10-9-----7-9-----7-9-10-9-------|
G#|-----7---8--7-----5-7-----8--7---|------7---5-7-----5-7-8--7-------|
D#|-------0------0-0-----0-0------0-|--------0-----0-0----------0-0-0-|
      p.m .      . .     . .      .      p.m .     . .          . . .



D#|---------------------------------|-----------------------------------|
A#|---------------------------------|-----------------------------------|
F#|-7-------------------------------|-----------------------------------|
C#|---9-----10-9-----7-9-----10-9---|-10-9-----7-9-----7-9-10-9---------|
G#|-----7---8--7-----5-7-----8--7---|------7---5-7-----5-7-8--7---------|
D#|-------0------0-0-----0-0------0-|--------0-----0-0----------0-0-0-0-|
      p.m .      . .     . .      .      p.m .     . .          . . . .



Verse
D#|---------------------------------|------------------------------|
A#|---------------------------------|------------------------------|
F#|---------------------------------|------------------------9---7-|
C#|-7-9-----10-9-----7-9---12-9-----|-7-9-----10-9-----7-9---7---5-|
G#|-5-7-----8--7-----5-7---10-7-----|-5-7-----8--7-----5-7---------|
D#|-----0-0------0-0-----0------0-0-|-----0-0------0-0-----0---0---|
    p.m . .      . .     .      . .   p.m . .      . .     .   .

D#|---------------------------------|------------------------------|
A#|---------------------------------|------------------------------|
F#|---------------------------------|--5-----------4---------------|
C#|-7-9-----10-9-----7-9---12-9-----|--5-----------4-------3-3-3-3-|
G#|-5-7-----8--7-----5-7---10-7-----|--3-----------2-------3-3-3-3-|
D#|-----0-0------0-0-----0------0-0-|----------------------1-1-1-1-|
    p.m . .      . .     .      . .

D#|---------------------------------|------------------------------|
A#|---------------------------------|------------------------------|
F#|---------------------------------|------------------------9---7-|
C#|-7-9-----10-9-----7-9---12-9-----|-7-9-----10-9-----7-9---7---5-|
G#|-5-7-----8--7-----5-7---10-7-----|-5-7-----8--7-----5-7---------|
D#|-----0-0------0-0-----0------0-0-|-----0-0------0-0-----0---0---|
    p.m . .      . .     .      . .   p.m . .      . .     .   .

D#|---------------------------------|----------------------------|
A#|---------------------------------|----------------------------|
F#|---------------------------------|--5-----------4-------------|
C#|-7-9-----10-9-----7-9---12-9-----|--5-----------4-------3-3-3-|
G#|-5-7-----8--7-----5-7---10-7-----|--3-----------2-------3-3-3-|
D#|-----0-0------0-0-----0------0-0-|----------------------1-1-1-|
    p.m . .      . .     .      . .
Chorus
D#|---------------------------------|---------------------------------|
A#|---------------------------------|---------------------------------|
F#|-7-------------------------------|---------------------------------|
C#|---9-----10-9-----7-9-----10-9---|-10-9-----7-9-----7-9-10-9-------|
G#|-----7---8--7-----5-7-----8--7---|------7---5-7-----5-7-8--7-------|
D#|-------0------0-0-----0-0------0-|--------0-----0-0----------0-0-0-|
      p.m .      . .     . .      .      p.m .     . .          . . .
D#|---------------------------------|---------------------------------|
A#|---------------------------------|---------------------------------|
F#|-7-------------------------------|---------------7-------4-4-4-----|
C#|---9-----10-9-----7-9-----10-9---|-5-------------7-------4-4-4-----|
G#|-----7---8--7-----5-7-----8--7---|-5-------------5-------2-2-2-----|
D#|-------0------0-0-----0-0------0-|-3-------------------------------|
      p.m .      . .     . .      .



Interlude
Guitar 1

D#|-10-7----------------------------|-8-7--------------------------|
A#|---------------------------------|------------------------------|
F#|------9-9b10-9-9-7h9-9-9-9b10-9--|-----9-7h9-9-9----------------|
C#|---------------------------------|------------------------------|
G#|---------------------------------|------------------------------|
D#|---------------------------------|------------------------------|

Guitar 2
D#|---------------------------------|--------------------------------|
A#|---------------------------------|--------------------------------|
F#|---------------------------------|--------------------------------|
C#|---------------------------------|---------------7-9-10-9---------|
G#|---------------------------------|---------------5-7-8--7---------|
D#|---------------------------------|------------------------0-0-0-0-|
                                                         p.m . . . .



Verse
D#|---------------------------------|------------------------------|
A#|---------------------------------|------------------------------|
F#|---------------------------------|------------------------9---7-|
C#|-7-9-----10-9-----7-9---12-9-----|-7-9-----10-9-----7-9---7---5-|
G#|-5-7-----8--7-----5-7---10-7-----|-5-7-----8--7-----5-7---------|
D#|-----0-0------0-0-----0------0-0-|-----0-0------0-0-----0---0---|
    p.m . .      . .     .      . .   p.m . .      . .     .   .

D#|---------------------------------|----------------------------|
A#|---------------------------------|----------------------------|
F#|---------------------------------|--5-----------4-------------|
C#|-7-9-----10-9-----7-9---12-9-----|--5-----------4-------3-3-3-|
G#|-5-7-----8--7-----5-7---10-7-----|--3-----------2-------3-3-3-|
D#|-----0-0------0-0-----0------0-0-|----------------------1-1-1-|
    p.m . .      . .     .      . .
Chorus
D#|---------------------------------|---------------------------------|
A#|---------------------------------|---------------------------------|
F#|-7-------------------------------|---------------------------------|
C#|---9-----10-9-----7-9-----10-9---|-10-9-----7-9-----7-9-10-9-------|
G#|-----7---8--7-----5-7-----8--7---|------7---5-7-----5-7-8--7-------|
D#|-------0------0-0-----0-0------0-|--------0-----0-0----------0-0-0-|
      p.m .      . .     . .      .      p.m .     . .          . . .
D#|---------------------------------|---------------------------------|
A#|---------------------------------|---------------------------------|
F#|-7-------------------------------|---------------7-------4-4-4-----|
C#|---9-----10-9-----7-9-----10-9---|-5-------------7-------4-4-4-----|
G#|-----7---8--7-----5-7-----8--7---|-5-------------5-------2-2-2-----|
D#|-------0------0-0-----0-0------0-|-3-------------------------------|
      p.m .      . .     . .      .


D#|---------------------------------|---------------------------------|
A#|---------------------------------|---------------------------------|
F#|-7-------------------------------|---------------------------------|
C#|---9-----10-9-----7-9-----10-9---|-10-9-----7-9-----7-9-10-9-------|
G#|-----7---8--7-----5-7-----8--7---|------7---5-7-----5-7-8--7-------|
D#|-------0------0-0-----0-0------0-|--------0-----0-0----------0-0-0-|
      p.m .      . .     . .      .      p.m .     . .          . . .

D#|---------------------------------|---------------------------------|
A#|---------------------------------|---------------------------------|
F#|-7-------------------------------|---------------7-------4-4-4-----|
C#|---9-----10-9-----7-9-----10-9---|-5-------------7-------4-4-4-----|
G#|-----7---8--7-----5-7-----8--7---|-5-------------5-------2-2-2-----|
D#|-------0------0-0-----0-0------0-|-3-------------------------------|
      p.m .      . .     . .      .

Lead

D#|---------------------------------|---------------------------------|
A#|-15------------------------------|---------------------------------|
F#|----16---------------------------|-17*-16--------------------------|
C#|-------14~~----------------------|--------14~~---------------------|
G#|---------------------------------|---------------------------------|
D#|---------------------------------|---------------------------------|


D#|---------------------------------|---------------------------------|
A#|-15------------------------------|---------------------------------|
F#|----16------------------------14-|-16------14-----14-----14--------|
C#|-------14----------14----17------|--------------------17-----17-14-|
G#|---------------------------------|---------------------------------|
D#|---------------------------------|---------------------------------|



Bridge
D#|-----------------------------------|--------------------------------|
A#|-----------------------------------|--------------------------------|
F#|-------9---8-7---7-----------------|-------9---8-7---7--------------|
C#|---9-----9-----9---8-9----8--------|---9-----9-----9---8-9----8-----|
G#|-7---7-----------------10---10-8-7-|-7---7-----------------10---8---|
D#|-----------------------------------|--------------------------------|
 p.m. . . . . . . . . . . .  . .  . . pm. . . . . . . . . . . .  .


D#|-----------------------------------|--------------------------------|
A#|-----------------------------------|--------------------------------|
F#|-------9---8-7---7-----------------|-----------------------10-------|
C#|---9-----9-----9---8-9----8--------|-10-----7------9-------10-------|
G#|-7---7-----------------10---10-8-7-|-10-----7------9-------8--------|
D#|-----------------------------------|-8------5------7----------------|
 p.m. . . . . . . . . . . .  . .  . .

D#|-----------------------------------|--------------------------------|
A#|-----------------------------------|--------------------------------|
F#|-------9---8-7---7-----------------|-------9---8-7---7--------------|
C#|---9-----9-----9---8-9----8--------|---9-----9-----9---8-9----8-----|
G#|-7---7-----------------10---10-8-7-|-7---7-----------------10---8---|
D#|-----------------------------------|--------------------------------|


D#|-----------------------------------|--------------------------------|
A#|-----------------------------------|--------------------------------|
F#|-------9---8-7---7-----------------|-----------------------10-------|
C#|---9-----9-----9---8-9----8--------|-10-----7------9-------10-------|
G#|-7---7-----------------10---10-8-7-|-10-----7------9-------8--------|
D#|-----------------------------------|-8------5------7----------------|




Instrumental
D#|----------------------------------|--------7-------7-------7-------7-|
A#|-------7-8-7-----------7-8b10r8-7-|-8---10---7---8-------7-------7---|
F#|-9---9-------9-8-----8------------|------------------9-------8-------|
C#|---9---------------9--------------|----------------------------------|
G#|----------------------------------|----------------------------------|
D#|----------------------------------|----------------------------------|

D#|----------------------------------|--------7-------7-------7-------7-|
A#|-------7-8-7-----------7-8b10r8-7-|-8---10---7---8-------7-------7---|
F#|-9---9-------9-8-----8------------|------------------9-------8-------|
C#|---9---------------9--------------|----------------------------------|
G#|----------------------------------|----------------------------------|
D#|----------------------------------|----------------------------------|

D#|----------------------------------|--------7-------7-------7-------7-|
A#|-------7-8-7-----------7-8b10r8-7-|-8---10---7---8-------7-------7---|
F#|-9---9-------9-8-----8------------|------------------9-------8-------|
C#|---9---------------9--------------|----------------------------------|
G#|----------------------------------|----------------------------------|
D#|----------------------------------|----------------------------------|

D#|----------------------------------|--------7-------7-------7-------7-|
A#|-------7-8-7-----------7-8b10r8-7-|-8---10---7---8-------7-------7---|
F#|-9---9-------9-8-----8------------|------------------9-------8-------|
C#|---9---------------9--------------|----------------------------------|
G#|----------------------------------|----------------------------------|
D#|----------------------------------|----------------------------------|



Solo
D#|-19-15----19-15----19-15-19-15----15----------15-|-18-15----18-15----18-15-18-15----15----------15-|
A#|-------17-------17-------------17----17----17----|-------17-------17-------------17----17----17----|
F#|----------------------------------------16-------|----------------------------------------16-------|
C#|-------------------------------------------------|-------------------------------------------------|
G#|-------------------------------------------------|-------------------------------------------------|
D#|-------------------------------------------------|-------------------------------------------------|

D#|-17b19r17-15-------------------------|-19-17-15----------------------------------------------------|
A#|-------------17-15-------------------|----------17-15----17----15----------------------------------|
F#|-------------------14b16r14----------|----------------16----16----16-14----16-14----14-------------|
C#|----------------------------17-14----|----------------------------------17-------17----17-14-------|
G#|----------------------------------17-|-------------------------------------------------------17-14-|
D#|-------------------------------------|-------------------------------------------------------------|

D#|-----------------------------------------|------------------------------------------------0--------|
A#|---------------------------12--11--------|----0-10---10*b11*------------------------------0--------|
F#|-----------------------9-----------------|---------------------------------------------------------|
C#|-14--------9------------------------8----|--8-----------------5-----7-5----------------------------|
G#|-------------------7---------------------|----------------------7-5-----7-5-----7-5----------------|
D#|-----------------------------------------|----------------------------------6-5-----6-5-3----------|
                                                             p.m . . . . . . . . . . . . . .


Instrumental
Guitar 1

D#|-19--19--19--18----------------17-15-14h15p14----|-------------18----15-14----17-14h15p14----19--|
A#|---------------------------16-----------------17-|---------17--------------16-------------17-----|
F#|-----------------------14------------------------|-16--16----------------------------------------|
C#|-------------------------------------------------|-----------------------------------------------|
G#|-------------------------------------------------|-----------------------------------------------|
D#|-------------------------------------------------|-----------------------------------------------|

Guitar 2

D#|-------------------------------------------------|-------------13-----------------------------7--|
A#|-------------------------------10-12-10h12p10----|---------12--------8--7-----10-8h-7p-8---------|
F#|---------------------------8------------------12-|-9---9-------------------8--------------9------|
C#|-------------8---------7-------------------------|-----------------------------------------------|
G#|---------7---------------------------------------|-----------------------------------------------|
D#|-------------------------------------------------|-----------------------------------------------|


D#|---------------------------------------|--------------------------------------|
A#|---------------------------------------|--------------------------------------|
F#|---------------------------------------|--------------------------------------|
C#|---------------------------------8-----|---------------------------------7----|
G#|-2-----5-----9-----5-----8---5---8-----|-2-----5-----9-----5-----8---5---7----|
D#|-0-0-0-3-3-3-7-7-7-3-3-3-6-6-3-3-6-----|-0-0-0-3-3-3-7-7-7-3-3-3-6-6-3-3-5----|
 p.m. . . . . . . . . . . . . . . .      p.m. . . . . . . . . . . . . . . .



Verse
D#|---------------------------------|------------------------------|
A#|---------------------------------|------------------------------|
F#|---------------------------------|------------------------9---7-|
C#|-7-9-----10-9-----7-9---12-9-----|-7-9-----10-9-----7-9---7---5-|
G#|-5-7-----8--7-----5-7---10-7-----|-5-7-----8--7-----5-7---------|
D#|-----0-0------0-0-----0------0-0-|-----0-0------0-0-----0---0---|
    p.m . .      . .     .      . .   p.m . .      . .     .   .

D#|---------------------------------|------------------------------|
A#|---------------------------------|------------------------------|
F#|---------------------------------|--5-----------4---------------|
C#|-7-9-----10-9-----7-9---12-9-----|--5-----------4-------3-------|
G#|-5-7-----8--7-----5-7---10-7-----|--3-----------2-------3-------|
D#|-----0-0------0-0-----0------0-0-|----------------------1-------|
    p.m . .      . .     .      . .

D#|---------------------------------|------------------------------|
A#|---------------------------------|------------------------------|
F#|---------------------------------|------------------------9---7-|
C#|-7-9-----10-9-----7-9---12-9-----|-7-9-----10-9-----7-9---7---5-|
G#|-5-7-----8--7-----5-7---10-7-----|-5-7-----8--7-----5-7---------|
D#|-----0-0------0-0-----0------0-0-|-----0-0------0-0-----0---0---|
    p.m . .      . .     .      . .   p.m . .      . .     .   .

D#|---------------------------------|----------------------------|
A#|---------------------------------|----------------------------|
F#|---------------------------------|--5-----------4-------------|
C#|-7-9-----10-9-----7-9---12-9-----|--5-----------4-------3-3-3-|
G#|-5-7-----8--7-----5-7---10-7-----|--3-----------2-------3-3-3-|
D#|-----0-0------0-0-----0------0-0-|----------------------1-1-1-|
    p.m . .      . .     .      . .
Chorus
D#|---------------------------------|---------------------------------|
A#|---------------------------------|---------------------------------|
F#|-7-------------------------------|---------------------------------|
C#|---9-----10-9-----7-9-----10-9---|-10-9-----7-9-----7-9-10-9-------|
G#|-----7---8--7-----5-7-----8--7---|------7---5-7-----5-7-8--7-------|
D#|-------0------0-0-----0-0------0-|--------0-----0-0----------0-0-0-|
      p.m .      . .     . .      .      p.m .     . .          . . .
D#|---------------------------------|---------------------------------|
A#|---------------------------------|---------------------------------|
F#|-7-------------------------------|---------------7-------4-4-4-----|
C#|---9-----10-9-----7-9-----10-9---|-5-------------7-------4-4-4-----|
G#|-----7---8--7-----5-7-----8--7---|-5-------------5-------2-2-2-----|
D#|-------0------0-0-----0-0------0-|-3-------------------------------|
      p.m .      . .     . .      .

D#|---------------------------------|---------------------------------|
A#|---------------------------------|---------------------------------|
F#|-7-------------------------------|---------------------------------|
C#|---9-----10-9-----7-9-----10-9---|-10-9-----7-9-----7-9-10-9-------|
G#|-----7---8--7-----5-7-----8--7---|------7---5-7-----5-7-8--7-------|
D#|-------0------0-0-----0-0------0-|--------0-----0-0----------0-0-0-|
      p.m .      . .     . .      .      p.m .     . .          . . .

D#|---------------------------------|---------------------------------|
A#|---------------------------------|---------------------------------|
F#|-7-------------------------------|---------------7-------4-4-4-----|
C#|---9-----10-9-----7-9-----10-9---|-5-------------7-------4-4-4-----|
G#|-----7---8--7-----5-7-----8--7---|-5-------------5-------2-2-2-----|
D#|-------0------0-0-----0-0------0-|-3-------------------------------|
      p.m .      . .     . .      .



Outro
D#|---------------------------------|---------------------------------|
A#|---------------------------------|---------------------------------|
F#|-7-------------------------------|---------------------------------|
C#|---9-----10-9-----7-9-----10-9---|-10-9-----7-9-----7-9-10-9-------|
G#|-----7---8--7-----5-7-----8--7---|------7---5-7-----5-7-8--7-------|
D#|-------0------0-0-----0-0------0-|--------0-----0-0----------0-0-0-|
      p.m .      . .     . .      .      p.m .     . .          . . .

D#|---------------------------------|-----------------------------------|
A#|---------------------------------|-----------------------------------|
F#|-7-------------------------------|-----------------------------------|
C#|---9-----10-9-----7-9-----10-9---|-10-9-----7-9-----7-9-10-9-2-2-2-2-|
G#|-----7---8--7-----5-7-----8--7---|------7---5-7-----5-7-8--7-2-2-2-2-|
D#|-------0------0-0-----0-0------0-|--------0-----0-0----------0-0-0-0-|
      p.m .      . .     . .      .      p.m .     . .          . . . .

Lead

D#|---------------------------------|---------------------------------|
A#|-15------------------------------|---------------------------------|
F#|----16---------------------------|-16b17---------16b17r16-14-16----|
C#|-------14~~----------------------|------------------------------14-|
G#|---------------------------------|---------------------------------|
D#|---------------------------------|---------------------------------|

D#|---------------------------------|---------------------------------|
A#|-15------------------------------|---------------------------------|
F#|----16---------------------------|-17*-16--------------------------|
C#|-------14~~----------------------|--------14~~---------------------|
G#|---------------------------------|---------------------------------|
D#|---------------------------------|---------------------------------|

***********************************
| h Hammer-on
| p Pull-off
| ~ Vibrato
| * Pinch Harmonic
| B Bend
| r Bend release
***********************************

Comments